Oops, an error
Loading. Please wait.

Mi Música Es Tu Voz Tab

version 1
version 1

Whole song

44 views 1 this week
no commentswrite comment
1 2 3 4 5
3 more votes to show rating
add to favorites
×
Save as Personal and add changes to this tab that will be seen only by you. Learn more ›
×
You can save this tab as Personal to edit and correct it or add notes. All changes will be seen only by you. Learn more »
save as personal
new!
launch autoscroll
font size
0
reset
how to read this tab
guitar tuner
Autoscroll
slow
fast
+/-
esc
set tempo
stop
e||-------9--7-9--7--9--12------|------0-9-7-5--7-5--------|
B||-----------------------------|--------------------------|
G||-----9-----------------------|--------------------------|
D||-----------------------------|--------------------------|
A||-----------------------------|--------------------------|
E||-----------------------------|--------------------------|
   Si no te conociera             si no estuviera aqui
                                                    
e||---------9-7-9-7-9--------|--------5--7--8----7--5-|
B||------5--------------7----|--6--8------------------|
G||--------------------------|------------------------|
D||--------------------------|------------------------|
A||--------------------------|------------------------|
E||--------------------------|------------------------|
   no habria encontrado        la alegria de vivir
                                                               
e||--12-10-12-10--12---17-----|----------------------------|
B||---------------------------|----17---15--17-15--14------|
G||---------------------------|----------------------------|
D||---------------------------|----------------------------|
A||---------------------------|----------------------------|
E||---------------------------|----------------------------|
   Enciendes melodias              que brotan en mi voz
                                                            
e||------------------------------|--------------7--8-----7--5--|
B||------14-12-14-12-14----------|-------8--10-----------------|
G||-----------------------11-----|---10------------------------|
D||------------------------------|-----------------------------|
A||------------------------------|-----------------------------|
E||------------------------------|-----------------------------|
   que calman y apaciguan           mi lucha interior oh oh
                                                                     
e||--4-5--7---6--7--9---7--5-|-----9--10---9--10--12---9--|
B||--------------------------|----------------------------|
G||--------------------------|----------------------------|
D||--------------------------|----------------------------|
A||--------------------------|----------------------------|
E||--------------------------|----------------------------|
   y aunque somos diferentes   nos une una obsesions
                                                                           
e||----9--16--14-16--17--16--14--|----------------------------------|
B||------------------------------|--------15---15----14--12-----12--|
G||------------------------------|---------------------------14-----|
D||------------------------------|----------------------------------|
A||------------------------------|----------------------------------|
E||------------------------------|----------------------------------|
   cantar es nuestra vida           y mi musica es tu voz
                                                  
e||---9--7-9-7--9--12-----|------9--7-5-7--5--------|
B||-----------------------|-------------------------|
G||-----------------------|-------------------------|
D||-----------------------|-------------------------|
A||-----------------------|-------------------------|
E||-----------------------|-------------------------|
    Cuenta con mi vida     que yo la doy por ti
                                                          
e||--10----9-------10----9---10-11----12-------------------|
B||------------10------------------------------------------|
G||--------------------------------------------------------|
D||--------------------------------------------------------|
A||--------------------------------------------------------|
E||--------------------------------------------------------|
   mi pasion la quiero compartir

Estribillo:                                                                   
e||--------8---10-----8--10------8--10-|--13--13--13--11-10--8--6--|
B||----11------------------------------|---------------------------|
G||-10-------------10---------10-------|---------------------------|
D||------------------------------------|---------------------------|
A||------------------------------------|---------------------------|
E||------------------------------------|---------------------------|
   A tu lado me siento seguro            a tu lado no dudo
                                                               
e||--13--13--13--11--10--10---------------------------|
B||------------------------------11--13--13-----------|
G||---------------------------------------------------|
D||---------------------------------------------------|
A||---------------------------------------------------|
E||---------------------------------------------------|
   a tu lado yo puedo volar

e||--------8---10-----8--10----8-10-|------13--13--13--11-10--8--6--|
B||----11---------------------------|-------------------------------|
G||-10-------------10---------10----|-------------------------------|
D||---------------------------------|-------------------------------|
A||---------------------------------|-------------------------------|
E||---------------------------------|-------------------------------|
   A tu lado hoy brilla mi estrella   a  tu lado mis sueños
                                                                           
e||-13--11--10--8--6--8--8----|----5-5--5---7--------------|
B||---------------------------|----------------------------|
G||---------------------------|----------------------------|
D||---------------------------|----------------------------|
A||---------------------------|----------------------------|
E||---------------------------|----------------------------|
  se haran por fin realidad     a tu lado

Estamos hoy unidos cantando esta cancion
mañana separados pero dentro esta el corazon

Aunque somos diferentes, nos une una obsesion
cantar es nuestra vida,y mi musica es tu voz.

A tu lado..

Louro´02
Suggest correction
Give kudos to tab author, rate the tab!
1 2 3 4 5
comments
print report bad tab
guest
Wanna post a correction for this tab? Suggest correction