Oops, an error
Loading. Please wait.

Mi Música Es Tu Voz Tab

version 2
version 2

Whole song

33 views 1 this week
no commentswrite comment
1 2 3 4 5
3 more votes to show rating
add to favorites
launch autoscroll
font size
0
reset
how to read this tab
guitar tuner
×
Best way to learn
"Mi Música Es Tu Voz"
Autoscroll
slow
fast
+/-
esc
set tempo
stop
Esta es la transcripción de los solos que os pongo en base a los acordes anteriormente sacados,
hay que tocarlos muy rápido para que suenen bien, pero una vez aprendidos son fáciles.

MI MUSICA ES TU VOZ

INTRO:LA-DO#m-RE-FA-FAm (Entre FA y Fam 1/2 tiempo).

LA                 DO#m
 Si no te conociera, si no estuviera aqui
RE                  FA
 no habría encontrado la alegría de vivir.
LA                DO#m
 Enciendes melodías que brotan en tu voz
RE                      FA                 LA
 que calman y apaciguan mi lucha interior.
|-----------------| |------------| |--------------------------------|
|G----------------| |------------| |-------------------------------G|
|T----------------| |-------1--2-| |----1-----1-----1--------------T|
|A--------------0-| |-2--4-------| |-0-----0-----4-----4--4--0-----A|
|B-----0--2--4----| |------------| |----------------------------4--B|
|---0-------------| |------------| |--------------------------------|

DO#7                FA#m  SIm
 Ya aunque somos diferentes
MI                  LA
 nos une una obsesión
|--------------------------------------------------| |-----------------------------------|
|G--2--3--2--0--2--3--2--0--2--3--2--0--2--0-------| |-0--------------------------------G|
|T--------------------------------------------2--1-| |----2--1-----1-----------3--0-----A|
|A-------------------------------------------------| |----------4-----4--3--4-----------T|
|B-------------------------------------------------| |-------------------------------4--B|
|--------------------------------------------------| |-----------------------------------|

DO#7                  FA#m
 cantar es nuestra vida
RE      SIm          MI
 y mi música es tu voz.
|--------------| |------------------------------------------------| |-----------|
|G-------------| |------------------------------------------------| |----------G|
|T-------------| |------------------------------------------------| |----1--2--T|
|A--0----------| |-------0-----------------------------------0--2-| |-4--------A|
|B-----4--2--0-| |-2--4-----4--2--0--2--4--2--0-----0--2--4-------| |----------B|
|--------------| |-------------------------------4----------------| |-----------|

LA                    DO#m
 Cuenta con mi vida que hoy la doy por tí.
RE   SIm       RE   LA    MI FA
 Mi pasión la quiero compartir.

     SIb                  REm                RE#
 A tu lado me siento seguro, a tu lado no dudo,
               SIb       FA
 a tu lado yo puedo volar.
      SIb                      REm
 A tu lado hoy brilla mi estrella,
                  RE#                SIb        FA
 a tu lado mis sueños se harán por fin realidad.

 A tu lado.... SOL-SIm-DO-RE#-FA (Entre Re# y Fa 1/2 tiempo).
|-----------------| |---------------------------| |---------------| || |------
|G----------------| |---------------------------| |---------------| || |------
|T----------------| |-------0--2--0--2--0-----0-| |---------------| || |-0----
|A--------------0-| |-2--4-----------------4----| |-4--0--0-----0-| || |----4-
|B-----0--2--3----| |---------------------------| |----------2----| || |------
|---3-------------| |---------------------------| |---------------| || |------

------------------| |---| |------------------| |------------------------| |---
------------------| |---| |------------------| |------------------------| |---
-0--2--0--2--0----| |-0-| |-3--3--3--3--2--2-| |-3--2--0--2--0--------0-| |---
----------------4-| |---| |------------------| |----------------3--3----| |-3-
------------------| |---| |------------------| |------------------------| |---
------------------| |---| |------------------| |------------------------| |---

SIb               REm
 Estamos hoy unidos cantando esta canción,
RE#                            FA#            SIb
 mañana separados pero vivo está en tu corazón.
|-----------| |---------------| |------------------| |---| 
|G----------| |---------------| |------------------| |---| 
|T----------| |----------0--0-| |-2--3--0----------| |---| 
|A----------| |-0--1--3-------| |----------4--1--0-| |---| 
|B--0--1--3-| |---------------| |------------------| |-3-| 
|-----------| |---------------| |------------------| |---| 

RE7                     SOLm
 Ya aunque somos diferentes
|------------| |---------------------------------------| |---------------------------| |---| ||
|------------| |---------------------------------------| |---------------------------| |---| ||  
|------------| |-------------------------------------0-| |-2--3--0--2--3--0--2-------| |---| ||
|-0--1--0----| |-0--1--0-----0--0--1--0-----0--1--3----| |----------------------3--1-| |-3-| ||
|----------3-| |----------3--------------3-------------| |---------------------------| |---| ||
|------------| |---------------------------------------| |---------------------------| |---| ||

FA                  SIb
 nos une una obsesión
|------------------------------------------------| |---------------| || 
|------------------------------------------------| |---------------| || 
|-------------------------------0--2--3--2-------| |---------------| || 
|----------------------0--1--3--------------4--1-| |---------------| || 
|-0--1--0-----0--1--3----------------------------| |-3--0----------| || 
|----------3-------------------------------------| |-------2--?--?-| || 

RE7                   SOLm
 cantar es nuestra vida
|------| |------------------| |----------1-----1-| |-3---|
|------| |-1-----1--3--1--3-| |-4--3--4-----4----| |----G|
|-2--3-| |----3-------------| |------------------| |----T|
|------| |------------------| |------------------| |----A|
|------| |------------------| |------------------| |----B|
|------| |------------------| |------------------| |-----|

RE#     SIb          FA  FA#
 y mi música es tu voz.

      SI                  RE#m               MI
 A tu lado me siento seguro, a tu lado no dudo,
               SI       FA#
 a tu lado yo puedo volar.
      SI                       RE#m
 A tu lado hoy brilla mi estrella,
                  MI                SI         SOL#
 a tu lado mis sueños se harán por fin realidad.

SOL#       DO#                 FAm               FA#
 Aaa tuuu lado me siento seguro, a tu lado no dudo,
               DO#    SOL#
 a tu lado yo puedo volar.
      DO#                      FAm
 A tu lado hoy brilla mi estrella,
                  FA#                DO#        SOL#
 a tu lado mis sueños se harán por fin realidad.

RE                           SOL
 A tu lado mi música es tu voz.
RE                           SOL
 A tu lado mi música es tu voz...
RE                       SOL   LA        RE              
 A tu lado mi música, mi música es tu voz.

Saludos y un beso.
Suggest correction
Give kudos to tab author, rate the tab!
1 2 3 4 5
comments
print report bad tab
guest
You may want to rate the tab now too:
select rating
Wanna post a correction for this tab? Suggest correction