Oops, an error
Loading. Please wait.

Noche De Bohemia Chords

53 views 3 this week
no commentswrite comment
1 2 3 4 5
3 more votes to show rating
add to favorites
launch autoscroll
font size
0
reset
transpose
0
reset
display chords
guitar tuner
×
Best way to learn
"Noche De Bohemia"
Autoscroll
slow
fast
+/-
esc
set tempo
stop
Int:  2 veces


    A                            C#m                           D
e|-------------7--12--10--9--7---------------7--10--9--7--------------|
b|--10-----10-------------------10--9-----9---------------10--9--10---|
g|------9------------------------------9------------------------------|
D|--------------------------------------------------------------------|
A|--------------------------------------------------------------------|
E|--------------------------------------------------------------------|


             E                  A
e|--------------------------------------------------------------------|
b|--7--7--9--10--9--7-------------------------------------------------|
g|---------------------9----------------------------------------------|
D|------------------------7-------------------------------------------|
A|---------------------------11--10--8--7-----------------------------|
E|--------------------------------------------------------------------|


A                        C#m
Noches de bohemia y de ilusión
                  D
No me doy a la razón
    E             A
Cómo te olvidaste de eso
A                              C#m
Busco y no encuentro una explicación
               D
Sólo la desilusión
        E               A      A E F#m (2 golpes cada uno)
De que falsos fueron tus besos
                   E   F#m
Ya no se como olvidarte
                         E
Cómo arrancarte de mis adentros
  C#m            D
Desde que te marchaste
   Bm           C#    F#m
Mi vida es un tormento
                   E     F#m
Ya no quiero recordarte
                     E
Ni siquiera ni un momento
 C#m           D
Pero llevo tu imagen
   Bm            C#
Clavá en mi pensamiento
A                        C#m
Noches de bohemia y de ilusión
                    D
Yo no me doy a la razón
       E             A
Tú como te olvidaste de eso

A  C#m  D  E  A  E  F#m

                    E    F#m
Yo quiero vivir distante

                         E
De todo aquello que era nuestro
C#m             D
Pero el aire me trae
 Bm         C#     F#m
Aromas de recuerdo
                    E     F#m
No me pidas que me calle
                        E
Que tú no sabes lo que siento
       C#m            D
Que me has hecho una herida
Bm         C#
En mi sentimiento
A                        C#m
Noches de bohemia y de ilusión
                  D
No me doy a la razón
    E             A
Cómo te olvidaste de eso
A                              C#m
Busco y no encuentro una explicación
                D
Sólo la desilusión
        E               A
De que falsos fueron tus besos

(El final se repite otras 3 veces)
Suggest correction
Give kudos to tab author, rate the tab!
1 2 3 4 5
comments
print report bad tab
guest
You may want to rate the tab now too:
select rating
Wanna post a correction for this tab? Suggest correction