Oops, an error
Loading. Please wait.

En Mi Lado Del Sofá Tab

44 views 1 this week
no commentswrite comment
1 2 3 4 5
3 more votes to show rating
add to favorites
launch autoscroll
font size
0
reset
how to read this tab
guitar tuner
×
Best way to learn
"En Mi Lado Del Sofá"
Autoscroll
slow
fast
+/-
esc
set tempo
stop
Bueno este es mi primer y humilde aporte, no habia una Tablatura
de guitarra para esta cancion asique bueno aqui les va!
que lo disfruten!espero les sirva.

Jourdan's Labra Naranjo(LayCan)


intro (teclado):> F Fm C Am A A7 E Em G Dm

Guitarra(distorcion)

E---------------------------------------------------------------
B------------------------------------------5--------------------
G--------7/9-------9/7-----------------7-------7---6---1/5---4--
D----10--------9--------7---6------5/7--------------------------
A---------------------------------------------------------------
E---------------------------------------------------------------

Am
Te esperaré,
                                    F
No importa quien te bese yo te esperaré
                                      C
No importa que me quieras yo te escucharé
                                   Dm
Si tú me has dado tanto yo te esperaré
       E             Am
Y te daré mi vida entera

E------------------------------
B------------------------------
G------------------------------
D------------------------------
A------------------------------
E--------3--0--3--0------------

   Am
Te esperaré,
                                    F
Te esperaré en las sombras siempre allí estaré
                                 C
No importa que tus ojos no me quieran ver
                                       Dm
No importa quien te abrace yo a ti te amaré
       E             Am
Y te daré mi vida entera

Pre-coro

         Dm                               Am
Porque mi amor está por encima de tanta traición
                              E
De tanto desprecio de toda razón
Porque el dolor que llevo dentro es todo
Tuyo y mío

Coro(x2)

E-------------------------------------------------------------
B-------------------------------------------------------------
G------555555---------------111111---------------555555-------
D------555555-555555-777777-222222-333333-555555-555555-------
A------333333-555555-777777-222222-333333-555555-333333-------
E-------------333333-555555--------111111-333333--------------

E-------------------------
B----------5--------------
G----5--7-----7--5-----5--
D--7----------------7-----
A-------------------------
E-------------------------

Luego se repite la intro
E---------------------------------------------------------------
B------------------------------------------5--------------------
G--------7/9-------9/7-----------------7-------7---6---1/5---4--
D----10--------9--------7---6------5/7--------------------------
A---------------------------------------------------------------
E---------------------------------------------------------------

 Am
Te esperaré,
                        F
Mi pena contenida la conoces bien,
                            C
Tan bien que si me dejas moriré de pie
                                 Dm
No lloraré tu ausencia solo esperaré
       E             Am
Y te daré mi vida entera


         Dm                               Am
Porque mi amor está por encima de tanta traición
                              E
De tanto desprecio de toda razón
Porque el dolor que llevo dentro es todo
Tuyo y mío


Coro(x3)

E-------------------------------------------------------------
B-------------------------------------------------------------
G------555555---------------111111---------------555555-------
D------555555-555555-777777-222222-333333-555555-555555-------
A------333333-555555-777777-222222-333333-555555-333333-------
E-------------333333-555555--------111111-333333--------------

E----------------------------
B----------5-----------------
G----5--7-----7--5-----5-(5)-
D--7----------------7--------
A----------------------------
E----------------------------

(guitarra limpia)
C          G
Yo sin tu amor
         Am        E          F
Soy un montón de cosas menos yo
                      Fm   C
Me duele tanto el corazón.


****Con mucho Amor para Victoria Fernanda Llanten Avendaño =)!!****
Suggest correction
Give kudos to tab author, rate the tab!
1 2 3 4 5
comments
print report bad tab
guest
You may want to rate the tab now too:
select rating
Wanna post a correction for this tab? Suggest correction