Oops, an error
Loading. Please wait.

Los Amantes Del Círculo Polar Tab

version 1
version 1

Whole song

34 views 1 this week
no commentswrite comment
1 2 3 4 5
3 more votes to show rating
add to favorites
×
Save as Personal and add changes to this tab that will be seen only by you. Learn more ›
×
You can save this tab as Personal to edit and correct it or add notes. All changes will be seen only by you. Learn more »
save as personal
new!
launch autoscroll
font size
0
reset
how to read this tab
guitar tuner
Autoscroll
slow
fast
+/-
esc
set tempo
stop
Intro x 2

e---------2-----------2-------
B-------3---3-------3---3-----
G-----2-------2---2-------2---
D---0-----------0-------------
A-----------------------------
E-----------------------------

      * Se sigue con punteo

D                 Am
Siento que el viejo cuento aquel                    D x 2      Am x 2
         D                  Am                  E---------2-----------0-----------2-----
no tenga el final que imaginé                  B-------3---3-------1---1-------3---3---
D                  Am                        G-----2-------2---2-------2---2-------2-
siento no poder hoy escribir                  D---0-----------2-----------0-----------
           D                    Am            A---------------------------------------
esta triste canción y dártela a ti.            E---------------------------------------
Am
Y ahí estás, la costumbre te ha hecho así   <------ Aqui   Am   se repite 
6 
veces
                                 D
no fui capaz en mi misma yo me perdí.  <----------- Aqui D se hace una vez


   * Aqui pueden acompañar una guitarras. En una hacer un rasgeo por cada 

acorde y
      en la segunda seguir con el punteo.

                                          Guitarra 1
                                           D         Am        C        G
                                    e--------2---------0---------0--------3----
D                   Am                       B--------3---------1---------1--------3----
Siento haber sido tu diablo azul               G--------2---------2---------2--------0----
   D                     Am                  D--------0---------2---------0--------0----
tu enemigo fiel ahora tabú                  A--------x---------0---------3--------2----
D                   Am                        E--------x---------x---------X--------3----
siento en mí ultrasonidos                        Guitarra 2
           D                    Am                          D           Am
de algo que olvidé viendo llover.            e---------2-----------0-----------2---
D      Am         C                  G      B-------3---3-------1---1-------3-----
Am (punteo)                              G-----2-------2---2-------2---2-------
Y ahí estás la costumbre te ha hecho así      D---0-----------2-----------0---------
D      Am         C                   G            A-------------------------------------
                                 D (punteo)      E-------------------------------------
no fui capaz en mi misma yo me perdí.


D      Am         C              G            Repetir 5 veces
Laaaa Laralala Laralalarala Laralaalaaaa.....


   * Despues de las 5 veces tienen que disminuir la velocidad del ritmo 
ó 
como se escucha
      en esa parte de la cancion y acompañarla con lo que viene a continuacion, 

se los dejo
      a su criterio como quieran emplearlos:


1ª Acompañamiento
                   D              Am                 C                  G
      e----------2------2----------0-------0----------2-------2----------0--------0-
      B--------3------3----------1-------1----------3-------3-----------1-------1---
      G------2------2----------2-------2-----------2------2-----------2-------2-----
      D----0------0----------2-------2-----------0------0-----------2-------2-------
      A-----------------------------------------------------------------------------
      E-----------------------------------------------------------------------------

2ª Acompañamiento

      e----2------2----2----2----2--------0-------0----0----0----0----------------
      B---------3----3----3----3-----1----------1----1----1----1------1-----------
      G-------2----2----2----2-----0----------2----2----2----2------0-------------
      D----0------------------------------2---------------------------------------
      A---------------------------------------------------------------------------
      E---------------------------------------------------------------------------

      e----0------0----0----0----0----0----------3-------3-----3----3----3----3---------
      B---------1----1----1----1----1------0-----------3-----3----3----3----3-----3-----
      G------------0----0----0----0------0-----------------0----0----0----0-----0-------
      D-------2-------------------------------------2----------------------------------
      A----3-------------------------------------3-------------------------------------
      E--------------------------------------------------------------------------------


   * Alguna duda o comentario enviarla a eduardo_rg10@
Suggest correction
Give kudos to tab author, rate the tab!
1 2 3 4 5
comments
print report bad tab
guest
Wanna post a correction for this tab? Suggest correction