Oops, an error
Loading. Please wait.

Los Amantes Del Círculo Polar Tab

version 2
version 2

Whole song

31 views 3 this week
no commentswrite comment
1 2 3 4 5
3 more votes to show rating
add to favorites
launch autoscroll
font size
0
reset
how to read this tab
guitar tuner
Autoscroll
slow
fast
+/-
esc
set tempo
stop
Esta es una correción al tab anterior.
Ojalá les guste. Está fácil y buena.

-En los versos van punteos que acompañan
 a los acordes, que son estos:

   Bb                              F
e|-------6------------6-----|         |-------1-----------1-----|
B|-----6----6-------6---6---|         |-----1---1-------1---1---|
G|---7--------7---7-------7-|         |---2-------2---2-------2-|
D|-8------------8-----------|         |-3-----------3-----------|
A|--------------------------|            |-------------------------|
E|--------------------------|         |-------------------------|

  Eb                              Gm
|-------3-----------3-------|         |-------3-----------3-----|
|-----4---4-------4---4-----|         |-----3---3-------3---3---|
|---3-------3---3-------3---|         |---3-------3---3-------3-|
|-5-----------5-----------5-|         |-5-----------5-----------|
|---------------------------|         |-------------------------|
|---------------------------|         |-------------------------|
      
Bb                  F
Siento que el viejo cuento aquel                    
              Bb                F      
no tenga el final que imaginé                  
Bb                  F
siento no poder hoy escribir                  
         Bb                     F
esta triste canción y dártela a ti
    Eb             Gm            
Y ahí estás, la costumbre te ha hecho así   
    Eb             F                                 
no fui capaz en mi misma yo me perdí.  

-aquí hay una variación en el punteo de F:

|-------5-------|
|-----6---6-----|
|---5-------5---|
|-7-----------7-|
|---------------|
|---------------|


Bb                   F  
Siento haber sido tu diablo azul               
      Bb                F
tu enemigo fiel ahora tabú                  
Bb                   F
siento en mí ultrasonidos de 
         Bb                F
algo que olvidé viendo llover            
    Eb             Gm            
Y ahí estás, la costumbre te ha hecho así   
    Eb             F                                 
no fui capaz en mi misma yo me perdí.  

-Coro:

Bb       Fm       Eb         F#
La laralala laralalarala larala larala la la  X 2            


-después se repiten los acordes, y luego de 
 nuevo el larala... X 2            


- Luego sigue una música con los mismos acordes
 y estos punteos:      

    Bb                            Fm
|-------------------------|      |-------1-----------1-----|
|-------------------------|      |-----1---1-------1---1---|
|-----7-8-7-------7-8-7---|      |---1-------1---1-------1-|
|---8-------8---8-------8-|      |-------------------------|
|-------------------------|      |-------------------------|
|-9-----------9-----------|      |-1-----------1-----------|

    Eb                            F#
|---------------------------|      |-------2------1-----------|
|-------6-----------6-------|      |-----2---2------2---4-----|
|-----8---8-------8---8-----|      |---3-------3------3---3---|
|---8-------8---8-------8---|      |------------------------3-|
|-6-----------6-----------6-|      |--------------------------|
|---------------------------|      |-2------------------------|...

espero que contenga el mínimo de errores
cualquier consulta, sugerencia, comentario a mi mail
alexes@
¿OK?
Suggest correction
Give kudos to tab author, rate the tab!
1 2 3 4 5
comments
print report bad tab
guest
You may want to rate the tab now too:
select rating
Wanna post a correction for this tab? Suggest correction