Oops, an error
Loading. Please wait.

París Bass Tab

176 views 1 this week
no commentswrite comment
1 2 3 4 5
3 more votes to show rating
add to favorites
launch autoscroll
font size
0
reset
guitar tuner
×
Best way to learn
"París"
Autoscroll
slow
fast
+/-
esc
set tempo
stop
Aqui les traigo la parte del bajo de un clasico de la oreja de
van gogh, cualquier error plz hacermelo llegar a mi correo
"aliado512@ escuchen bien al audio para agarrarle
el ritmo ok...

Estrofa:
G|---------------|   |------------------------------------------
D|---------------|   |------------------------------------------
A|-5-5----5--55--|   |-5--55-5--5------------5--55-5-------5--55
E|----55-5--5---5|x2 |---5----3--33-35-055-5--5-----3-355-5--5--

G|------------------|
D|------------------|
A|-5----------------|
E|--3-355-56-6666666|

Coro:
G|----------|----------|----------|----------|----------|
D|----------|----------|----------|----------|----------|
A|-5-55-5-55|----------|-3-33-3-33|----------|-1-11-1-11|
E|----------|-3-33-3-33|----------|-1-11-1-11|----------|

G|----------|----------|----|
D|----------|----------|----|
A|----------|----------|5---|
E|-3-33-3-33|-5-55-5-55|----|

Estrofa:
G|---------------|   |------------------------------------------
D|---------------|   |------------------------------------------
A|-5-5----5--55--|   |-5--55-5--5------------5--55-5-------5--55
E|----55-5--5---5|x2 |---5----3--33-35-055-5--5-----3-355-5--5--

G|------------------|
D|------------------|
A|-5----------------|
E|--3-355-56-6666666|

Coro:
G|----------|----------|----------|----------|----------|
D|----------|----------|----------|----------|----------|
A|-5-55-5-55|----------|-3-33-3-33|----------|-1-11-1-11|
E|----------|-3-33-3-33|----------|-1-11-1-11|----------|

G|----------|----------|----------||----------|----------|
D|----------|----------|----------||----------|-0-00-0-00|
A|----------|----------|-5-55-5-55||------0-00|----------|
E|-3-33-3-33|-5-55-5-55|----------||-1-11-----|----------|x2

G|----------|   |-------------|
D|----------|   |-------------|
A|------3-33|   |------0000000|
E|-3-33-----|x3 |-1-11--------|

Coro:
G|----------|----------|----------|----------|----------|
D|----------|----------|----------|----------|----------|
A|-5-55-5-55|----------|-3-33-3-33|----------|-1-11-1-11|
E|----------|-3-33-3-33|----------|-1-11-1-11|----------|

G|----------||----------|----------|   |---------|----|
D|----------||----------|----------|   |---------|----|
A|----------||----------|-5-55-5-55|   |---------|-5--|
E|-3-33-3-33||-5-55-5-55|----------|x3 |-55-055-5|----|
Suggest correction
Give kudos to tab author, rate the tab!
1 2 3 4 5
comments
print report bad tab
guest
You may want to rate the tab now too:
select rating
Wanna post a correction for this tab? Suggest correction