Oops, an error
Loading. Please wait.

Perdóname Tab

10 views 1 this week
no commentswrite comment
1 2 3 4 5
3 more votes to show rating
add to favorites
launch autoscroll
font size
0
reset
how to read this tab
guitar tuner
Autoscroll
slow
fast
+/-
esc
set tempo
stop
Help us to improve Ultimate-Guitar.com Take our survey!
×
La transcrpción anterior esta buenisima, de hecho, de ahí
saque la secuancia base, pero le falto justamente la parte
que más me gusta de la canción. Aquí les va corregida y
con el ritmo de la guitarra tabulado.

   ------------------ ---------------- ---------------------------------
   |      Verso      ||Pre-estribillo||            Estribillo           |
    G  D7  Am   C  Bm   Am  G  G5  D    G5  D5 Em  Am  C5 Bm5 C  G  D D#
e---3--(2)-(5)-(8)-(7)--0-- 3--3--(2)-------------------------3--3--5--6--
B---3---3---5---5---7---1---0--3---3---------------(1)---(3)--5--3--7--8--
G---4---5---5---5---7---2---0--0---2----4---7---0---2--5--4---5--4--7--8--
D---5---4---7---5---9---2---0--0---0----5---7---2---2--5--4---5--5--7--8--
A---5---5---7---7---9---0---2--2---0----5---5---2---0--3--2---3--5--5--6--
E---3--(2)--5---8---7-------3--3--------3---5---0---0--3--2------3--------

Intro
       G            Re7/A              REmaj5
e-----------------------------------------------------------
B-----------3--------------3----------------3---------------
G---------4---4----------5---5------------3---3-------------
D-------5-------5------4-------4--------4-------4-----------
A---------------------------------(0)/5---------------------
E-(1)/3-----------3/5---------------------------------------

La siguiente parte va con Pizzicato (Cuerdas pulsadas)
                         _________
     G            D7           1.|
e|-------------------------------||-------------------------
B|----(3)----(3)---(3)---3-------||-------------------------
G|-----4------4-----5------5---*-||-------------------------
D|-----5------5-----4--------4-*-||-------------------------
A|---------------5-----5---------||-------------------------
E|--3-----3-3--------------------||--3----------------------

                               G  D7
Dame un beso que me haga viajar.
G            D7            G    D7
Dame una canción para esperar.
Am           C            Bm  G              D7               G   D7  (Fill.1)
Dame un sueño roto para coser.
G             D7               G    D7  (Fill.2)
Dame un libro que me haga crecer.

Am                G         Am        G5
Cuando el mar no tenga sed y el amor sepa perder
Am          G      Am            D
venderé mi corazón para darte algo mejor.

G5 - D5 - Em      Am - C5 - D5
Perdóname,      Abrázame.
Bm(5)              C
Te he visto llorar,
                   G                        C
Donde nadie llora más, donde el amor sabe mal,
                   G                        C
donde los besos se van, donde la vida da igual,
                      G                      D
donde nada es de verdad, donde no existe la paaaaaz.

(Fill.3)

G              D7              G (Fill.4) D7 (Fill.5)
Dame un par de noches y te amaré.
G             D7            G      D7
Dame una sonrisa y no te olvidaré.

Am               G           Am          G
Cuando el mar no tenga sed y el amor sepa perder
Am             G     G             D
venderé mi corazón para darte algo mejor.

G - D - Em      Am - C - D
Perdóname,      Abrázame.
Bm              C
Te he visto llorar,
                   G                        C
Donde nadie llora más, donde el amor sabe mal,
                   G                        C
donde los besos se van, donde la vida da igual,
                      G                      D
donde nada es de verdad, donde no existe la paaaaaz.

Cm (Fill.6)

G - D - Em      Am - C - D
Perdóname,      Abrázame.
Bm              D#
Te he visto llorar,
                   G                        D#
Donde nadie llora más, donde el amor sabe mal,
                   G                        D#
donde los besos se van, donde la vida da igual,
                      G                      D - C - G
donde nada es de verdad, donde no existe la paaaaaaaz.

Fill.1
e-/10-/8-/7---
B-------------
G-------------
D-------------
A-------------
E-------------

Fill.2
e-----7-5-7-5-7/8-5-
B-------------------
G-5/7---------------
D-------------------
A-------------------
E-------------------

Fill.3           -------------------  ------------------------------------
                |                1. | |                                2.|
e--------2-3-----------2-3----------||------------3----5----7------8----7--
B------3-------3-----3-------3/5-3--||--3-5-3-----------------------------
G----4-------4-----4-------4-------*||---------3/4--4/5--5/7--7-7/9--9/-7--
D--5-------------5-----------------*||-------------------------------------
A-----------------------------------||-------------------------------------
E-----------------------------------||-------------------------------------

Fill.4

e--7-7-5-5-3---
B--------------
G--7-7-5-5-4---
D--------------
A--------------
E--------------

Fill.5 (No estoy muy seguro de esto)

e--------------
B--5-5-4-4-3---
G--7-7-5-5-4---
D--------------
A--------------
E--------------

Fill.6

e--------------
B-----4--6-----
G--5-----------
D--------------
A--3--3--3-----
E--------------
Suggest correction
Give kudos to tab author, rate the tab!
1 2 3 4 5
comments
print report bad tab
guest
You may want to rate the tab now too:
select rating
Wanna post a correction for this tab? Suggest correction