Oops, an error
Loading. Please wait.

V.s.o. (Versión Más Guapa) Tab

10 views 1 this week
no commentswrite comment
1 2 3 4 5
3 more votes to show rating
add to favorites
launch autoscroll
font size
0
reset
how to read this tab
guitar tuner
×
Best way to learn
"V.S.O. (versión Más Guapa)"
Autoscroll
slow
fast
+/-
esc
set tempo
stop
Esta es la versión ?Más Guapa? de la canción V.O.S.
Se presenta como Tablatura pero son tablaturas y acordes.
Se pueden utilizar los acordes aquí presentes o los
de la anterior version. Si aun los desconocen contacten
conmigo en mi correo.

Introducción:


   ______x3______

1)-----2--4--6--4-|-------------0------------------------------------|
2)--4-------------|-4--6--5--4-----4--2--0--2-----3--2--2--1--1------|
3)----------------|--------------------------------------------------|
4)----------------|----------------------------3---------------------|
5)----------------|--------------------------------------------------|
6)----------------|--------------------------------------------------|

1)--------------------------[7]--------------------------------------|
2)-----3--3--3--3--7-----0-------------------------------------------|
3)--3-----------------3----------------------------------------------|
4)-------------------------------------------------------------------|
5)-------------------------------------------------------------------|
6)-------------------------------------------------------------------|


Estrofas:

DO                                MIm
Al igual que un gas invade un laberinto
        LAm                      FA
la nostalgia se hizo con mi corazón.
            LA                      MI
Y aunque a pares tengo ojos tengo oídos
                   LA                    REm
sin ti pierde el sentido el sonido y el color.


No me quito el vicio de esperarte en casa
apoyando mi cabeza en el cristal,
y cuando empaño de un suspiro la ventana
dibujo un tres en raya, que vuelvo a empatar.


>>> ESTRIBILLO <<<

SOL    DO
Si un dia nos cruzamos,
       MIm
no respondas ni hagas caso
          LA7
a los subtitulos que bajo
REm
mi sonrisa sabes ver
        FA           SOL
yo te dire que voy tirando
   MI7               LAm
negare que estoy llorando,
     FA             SOL      Do/Mi7
fingire que el tiempo todo lo curó.


No consigo hacer nada sin darme cuenta
es el precio de aprender a no llorar.
Y es que aunque a veces nada indique que compensa
yo me niego a dar la vuelta,
y hacerme menor de edad.


>>> ESTRIBILLO <<<


>>> ESTRIBILLO[2] <<<


     SOL
Y en realidad nunca te olvido
         MIm
fuiste mi unico camino
       LA7
y tu sonrisa un buen motivo
     REm
para ser alguien mejor
           FA                 SOL
y aunque te cuenten que me vieron,
      MI7             LAm
de princesa en algun cuento

         FA           SOL
no hace falta que te diga
        FA             DO
que tan solo cuentos son.


Fin:

  ______x3______

1)-----2--4--6--4-|-------------0------------------------------------|
2)--4-------------|-4--6--5--4-----4--2--0--2-----3--2--2--1--1------|
3)----------------|--------------------------------------------------|
4)----------------|----------------------------3---------------------|
5)----------------|--------------------------------------------------|
6)----------------|--------------------------------------------------|

1)--------------------------[7]--------------------------------------|
2)-----3--3--3--3--7-----0--------------------------|-----|-----|----|
3)--3-----------------3-----------------------------|-----|-----|----|
4)--------------------------------------------------|-----|-----|----|
5)--------------------------------------------------V-----V-----V----|
6)-------------------------------------------------------------------|


Esta es una canción alegre y bonita que s la dedico
a Lucia, porque estuvimos juntos en el concierto de
La Oreja De Van Gogh y que bien no lo pasamos? ¿EH?
Bsss wapisisima s?amu a tods los d nuestro grupo!!

Álvaro
Suggest correction
Give kudos to tab author, rate the tab!
1 2 3 4 5
comments
print report bad tab
guest
You may want to rate the tab now too:
select rating
Wanna post a correction for this tab? Suggest correction