Oops, an error
Loading. Please wait.

Caperucita Feroz Chords

version 2
version 2

Whole song

Interactive

44 views 1 this week
no commentswrite comment
1 2 3 4 5
3 more votes to show rating
add to favorites
launch autoscroll
font size
0
reset
transpose
0
reset
display chords
guitar tuner
Autoscroll
slow
fast
+/-
esc
set tempo
stop
Help us to improve Ultimate-Guitar.com Take our survey!
×
esta esta mejor que la otra

Riff
E-|----------------------------------------------------------||
B-|----------------------------------------------------------||
G-|----------------------------------------------------------||
D-|----------------------------------------------------------||
A-|-2-2-0-0-----0-0-2-2-0-0-----0-0--5-5-5-5-5-5-4-4-4-4-4-4-||
E-|---------2-2-------------2-2------------------------------||


Riff????
Hola mi amor
Yo soy el lobo
D
Quiero tenerte cerca 
         C#
Para oirte mejor


Riff????
Hola mi amor
Soy yo tu lobo
D
Quiero tenerte cerca
           C#
Para verte mejor


Riff????
Hola mi amor
Yo soy el lobo
D
Quiero tenerte cerca 
             C# 
Para olerte mejor


Riff????
Hola mi amor
Soy yo tu lobo
D
Quiero tenerte cerca
           C# 
Para oirte mejor


A              B
Yo lo que quiero
      D      E
Es tu cuerpo tan brutal
A              B
Y lo que adoro
      D      E
Es tu fuerza de animal


-Solo- (Riff)


A              B
Si con tus garras
      D      E
Me quisieras abrazar
A              B
Y con tus dientes
      D      E
Me quisieras tu besar


Riff????
Hola mi amor
Yo soy el lobo
D
Te compraría un anillo
          C# 
Un pastel, un collar


Riff????
Hola mi amor
Soy yo tu lobo
D
Quiero bailar contigo
      C#
Un lindo rock´n´roll


Riff????
Hola mi amor
Yo soy el lobo
D
Te compraría un anillo
C# 
Un pastel, un collar


Riff????
Hola mi amor
Soy yo tu lobo
D
Quiero bailar contigo
C# 
Un lindo rock´n´roll


A            B      
Yo sólo quiero
      D      E
Una noche sin final
A            B      
En la que ambos
      D      E
Nos podamos devorar


Riff

E-|----------------------------------------------------------||
B-|----------------------------------------------------------||
G-|----------------------------------------------------------||
D-|----------------------------------------------------------||
A-|-2-2-0-0-----0-0-2-2-0-0-----0-0--5-5-5-5-5-5-4-4-4-4-4-4-||
E-|---------2-2-------------2-2------------------------------||


final:    riff...D  C# ...A
Suggest correction
Give kudos to tab author, rate the tab!
1 2 3 4 5
comments
print report bad tab
guest
You may want to rate the tab now too:
select rating
Wanna post a correction for this tab? Suggest correction