Oops, an error
Loading. Please wait.

La Flor De La Canela Tab

116 views 1 this week
no commentswrite comment
1 2 3 4 5
3 more votes to show rating
add to favorites
launch autoscroll
font size
0
reset
how to read this tab
guitar tuner
×
Best way to learn
"La Flor De La Canela"
Autoscroll
slow
fast
+/-
esc
set tempo
stop
En realidad no estoy seguro acerca de los tiempos, sólo uso
las barras como referencia pero nada estricto.

p - presionar (martilleo) [hammer]
s - soltar    [pull off]


e|------------------|-7-----------7--8-|-10------12-13-12-|
B|-5p6s5----5--6--5-|----------5-------|------------------|
G|-------7----------|------------------|------------------|
D|------------------|------------------|------------------|
A|------------------|------------------|------------------|
E|------------------|------------------|------------------|

|---10p12----------|-12-12-10-10--8--8-7-|-------------------|
|----------13------|-13-13-12-12-10-10-8-|-10-10-8-8-6-6-6-5-|
|------------------|---------------------|-10-10-9-9-7-7-7-5-|
|------------------|---------------------|-------------------|
|------------------|---------------------|-------------------|
|------------------|---------------------|-------------------|

  ....... * ......
|-------------------12-|-------9-------12-------9-------|
|-10-10-10-10-10-10----|-10-10---10-10----10-10---10-10-|
|----------------------|--------------------------------|
|----------------------|--------------------------------|
|----------------------|--------------------------------|
|----------------------|--------------------------------|

|---10----10-------|-10-10-12-13-12-10-----|----10-12-10--------|
|------------10----|-------------------13--|-13----------13-12--|
|---------------10-|-----------------------|--------------------|
|------------------|-----------------------|--------------------|
|------------------|-----------------------|--------------------|
|------------------|-----------------------|--------------------|

|-------10------------|------------12--|
|-12-13----12---12p13-|--10---13-------|
|---------------------|----------------|
|---------------------|----------------|
|---------------------|----------------|
|---------------------|----------------|

Am . G . F . E7 .  [Rasguear una sola vez, rápido]

* = Marco 6 puntilleos, pero quizá son 5.
    Es necesario decidirlo al tocarlo.


La transcripción siguiente NO ES MÍA, pero la pongo porque,
aunque está indicado que mi colaboración es una tablatura
parece ser que varios entran buscando los acordes:


TRANSCRIPCIÓN POR Carlos Souza

MI7                     LAm
Déjame que te cuente limeño
LA7                    REm
déjame que te diga la gloria
       SOL7                 DO
del ensueño que evoca la memoria
          MI                     LAm
del viejo puente del río y la alameda

MI7                     LAm
Déjame que te cuente limeño
LA7                    REm
ahora que aún perfuma el recuerdo
    SOL7                    DO
ahora que aún se mece en un sueño
          MI                    LAm
del viejo puente del río y la alameda

                  SOL7               DO
A) Jazmines en el pelo y rosas en la cara
             SOL7                  DO
airosa caminaba, la flor de la canela
            SOL7                 DO
derramaba lisura y a su paso dejaba
 LA7         REm         SOL7        DO
aroma de mistura que en el pecho llevaba
                    SOL7
del puente a la alameda
              DO                              SOL7
menudo pie la lleva por la vereda que se estremece
                 DO
al ritmo de su cadera
           SOL7                  DO
recogía la brisa de la risa del río
       LA7         REm
y al viento la lanzaba
     SOL7          DO
del puente a la alameda

MI                   LAm
Déjame que te cuente limeño
              MI                   LAm
ay deja que te diga moreno mi pensamiento
   MI                        LAm
a ver si así despiertas del sueño
                   MI
del sueño que entretiene moreno
        LAm
tu sentimiento

MI             LAm         MI           LAm
Aspira de la lisura que da la flor de Canela
               MI                        LAm
adornada con jazmines matizando su hermosura
MI                   LAm          MI          LAm
alfombra de nuevo el puente y engalana la alameda
                   MI                     LAm
que el río acompasará sus pasos por la vereda
             SOL7
y recuerda que..... (A)
Suggest correction
Give kudos to tab author, rate the tab!
1 2 3 4 5
comments
print report bad tab
guest
You may want to rate the tab now too:
select rating
Wanna post a correction for this tab? Suggest correction