Oops, an error
Loading. Please wait.

La Llorona Tab

137 views 1 this week
no commentswrite comment
1 2 3 4 5
1 last vote to show rating
add to favorites
launch autoscroll
font size
0
reset
how to read this tab
guitar tuner
Autoscroll
slow
fast
+/-
esc
set tempo
stop
Help us to improve Ultimate-Guitar.com Take our survey!
×
INTRO
e--0----0----0----0----0----0----0------------
b----1----1----1----1----0----0----0----------
g------2----2---2----2-----0----0----0--------BIS
D---------------------------------------------
A--0------------------------------------------
E----------------------3---------------0--1--3


--0------0------0-------
----1------0----1-------
------2------1--2-------
------------------------
--0-------------0-------
---------0--------------

1ERA PARTE

0--0--0-----0---0--3--1--1--3--1--1--0--0----0--------
--------1---------------------------------1----1-3-0--
------------------------------------------------------BIS
-------------------0----------------------------------
---0------------------------0--------0----------------
----------0---------------------------------0----0---4
2DA PARTE

--0--5--5--5----8---8--7--3--3--7--3--3--1--1--5--1--5--4--0---0
----------------------------------------------------------------
----------------------------------------------------------------
----------------------------------------------------------------
-----0--------------------------0----------------0--------------
-----------------------3-----------------1--------------0----4--


SE TOCA:

INTRO 2X
PARTE1 2X
PARTE2 2X
PARTE1 2X
PARTE2 4X
INTRO  2X
Suggest correction
Give kudos to tab author, rate the tab!
1 2 3 4 5
comments
print report bad tab
guest
You may want to rate the tab now too:
select rating
Wanna post a correction for this tab? Suggest correction