Oops, an error
Loading. Please wait.

La Marihuana Chords

65 views 1 this week
no commentswrite comment
1 2 3 4 5
3 more votes to show rating
add to favorites
launch autoscroll
font size
0
reset
transpose
0
reset
display chords
guitar tuner
×
Best way to learn
"La Marihuana"
Autoscroll
slow
fast
+/-
esc
set tempo
stop
 Esta va pa' mis cuates de la Facultad de Economía de la UNAM
que les gusta andar viajados.


INTRO:
   A           E               A
e----------------0-0-0-0---0-2-0--------------5-----5--
B------------2-0-----------------3-2-0------5-----5----
G------2---2---------------------------2--6-----6------
D--2-2---2---------------------------------------------
A------------------------------------------------------
E------------------------------------------------------

           E                   A
e--------0-0-0-0---0-2-0-------------------------------
B----5-0-----------------3-2-0-------------------------
G--6---------------------------2-----------------------
D------------------------------------------------------
A------------------------------------------------------
E------------------------------------------------------


 A
   Cuni, cuni,
           E
cantaba la rama

y hechaba las coplas
           A
de la marihuana.

                      E
  Marihuana tuvo un hijito

y le pusieron
         A
san expedito

como era abogado 
              E
de los de Santana

porque era Sanzon
             A
para la marihuana.

                     E
  Marihuana, ya no puedo
                  A
ni levantar la cabeza
                      E
con los ojos rete colorados
                     A         E A
y la boca reseca, reseca.
Suggest correction
Give kudos to tab author, rate the tab!
1 2 3 4 5
comments
print report bad tab
guest
You may want to rate the tab now too:
select rating
Wanna post a correction for this tab? Suggest correction