Oops, an error
Loading. Please wait.

Macondo Chords

171 views 1 this week
no commentswrite comment
1 2 3 4 5
3 more votes to show rating
add to favorites
launch autoscroll
font size
0
reset
transpose
0
reset
simplify chords
display chords
guitar tuner
×
Best way to learn
"Macondo"
Autoscroll
slow
fast
+/-
esc
set tempo
stop
Macondo
Canta: Oscar Chávez


INTRO (REQUINTO)
                                            Am                                                                 E
e ------------------------------------------0-----0---------0-------1-----0--0--0--------------------------------
B-------------------------------1---------------------------------------------------1--0-------------------------
G-------------2------------2--------------------------------------------------------------2--1---1----2----2--4-4
D---2 --2----------2---------------------------------------------------------------------------------------------
A----------------------------------------------------------------------------------------------------------------
E----------------------------------------------------------------------------------------------------------------

                                                                                                                Am
e -------------------------------------------------------0----------------------------------------------------0--0
B-------------------------------1----3-----3----3----------3---3------1------0---1---0--1--1---3---3--------------
G-------------2------------2--------------------------------------------------------------------------------------
D---2 --2----------2----------------------------------------------------------------------------------------------
A-----------------------------------------------------------------------------------------------------------------
E-----------------------------------------------------------------------------------------------------------------

Am-Am-E7-Am

                    Am
Los cien años de Macondo sueñan
             E
sueñan en el aire

y los años de Gabriel trompetas,
                 Am
trompetas lo anuncian.


Encadenado a Macondo sueña
            E
don José Arcadio

y ante el la vida pasa haciendo
                 Am
remolinos de recuerdos.


La tristeza de Aureliano, el cuatro
                  E
la belleza de Remedios, violines

las pasiones de Amaranta, guitarras
                Am
el embrujo de Melquiades, oboes.

                    E
Ursula, cien años, dónde está Macondo
Am                  E
Ursula, cien años, dónde está Macondo
Am                            E
Eres, epopeya del  pueblo olvidado
                                    Am
forjado en cien años de amor esta historia
                                E
Eres, epopeya del  pueblo olvidado
                                     Am
forjado en cien años de amor esta historia
       G      F          E
Me imagino y vuelvo a vivir
        G       F          E
en  mi memoria quemada al sol.
             A                   E
Mariposas amarillas, Mauricio Babilonia
                                    A
mariposas amarillas que vuelan liberadas
                                     E
Mariposas amarillas, Mauricio Babilonia
                                     A
mariposas amarillas que vuelan liberadas


REQUINTO

...y se repite toda la canción
Suggest correction
Give kudos to tab author, rate the tab!
1 2 3 4 5
comments
print report bad tab
guest
You may want to rate the tab now too:
select rating
Wanna post a correction for this tab? Suggest correction