Oops, an error
Loading. Please wait.

Macondo Tab

version 1
version 1

Whole song

109 views 1 this week
no commentswrite comment
1 2 3 4 5
3 more votes to show rating
add to favorites
launch autoscroll
font size
0
reset
how to read this tab
guitar tuner
×
Best way to learn
"Macondo"
Autoscroll
slow
fast
+/-
esc
set tempo
stop
este es el requinto que yo tengo

e -----------------------------0-----------0-----------0--0--1--0--0--------
B---------------------1--1-----------1-----------1-----------------------3--
G------------2--2-----------------------------------------------------------
D---2--2--------------------------------------------------------------------
A---------------------------------------------------------------------------
E---------------------------------------------------------------------------

                                                                               
e ----------------------------------------------------0---------------------
B---------------------0--0--3--0--3--0-------0--0-----------3--3--1---------
G------------1--1-----------------------------------------------------------
D---2--2--------------------------------------------------------------------
A---------------------------------------------------------------------------
E---------------------------------------------------------------------------   


e -----------------------------0-----------0-----------0--0--1--0--0--------
B---------------------1--1-----------1-----------1-----------------------3--
G------------2--2-----------------------------------------------------------
D---2--2--------------------------------------------------------------------
A---------------------------------------------------------------------------
E---------------------------------------------------------------------------


e -------------------------------------------0--1--0------------------------
B---------------------0--0--3--0--3--0-----------------3--1--0--------------
G------------1--1--------------------------------------------------2--------
D---2--2--------------------------------------------------------------------
A---------------------------------------------------------------------------
E---------------------------------------------------------------------------   

y quiero saber a donde mandarte un archivo de sonido del mismo requinto para 
que lo sepan tocar(no esta dificil)
Suggest correction
Give kudos to tab author, rate the tab!
1 2 3 4 5
comments
print report bad tab
guest
You may want to rate the tab now too:
select rating
Wanna post a correction for this tab? Suggest correction