Oops, an error
Loading. Please wait.

Macondo Tab

version 2
version 2

Whole song

109 views 1 this week
no commentswrite comment
1 2 3 4 5
3 more votes to show rating
add to favorites
launch autoscroll
font size
0
reset
how to read this tab
guitar tuner
×
Best way to learn
"Macondo"
Autoscroll
slow
fast
+/-
esc
set tempo
stop
Aquí les dejo macondo (gran canción)
Esta versión lleva unos arreglos
Muy padres que por falta de tiempo
No pongo, si los quieren o quieren
Esta versión de la canción aquí esta mi correo:


E -----------------------------------------------------
B --------------------12--12----13----12-12------------
G -------9-----9--12---------12----12-------12-11-9-8-8
D --9-9----9-------------------------------------------
A -----------------------------------------------------
E -----------------------------------------------------

E ---------------------------------7------------7-
B ------------------7-7/10--10--7--7---7/10--7--7-
G ------------8---8---8/11--11--8------8/11--8----
D -10-9---9-9---9---------------------------------
A ------------------------------------------------
E ------------------------------------------------

E -----------------------------------
B --7--7/8---8--7--8-----------------
G --8--8/9---9--8--9----------------- 2 veces.
D -----------------------------------
A -----------------------------------
E -----------------------------------

              MIm
Los cien años de Macondo sueñan,
              B
Sueñan en el aire
Y en los años de Gabriel trompetas,
               MIm
Trompetas lo anuncian
                                      B
Encadenado a Macondo sueña con José Arcadio
Y ante él la vida pasa haciendo
                    MIm
Remolinos de recuerdo

                     MIm
Las tristezas de Aureliano(el cuatro)
                B
La belleza de Remedios (violines)
Las pasiones de Amaranta (guitarras)
                  MIm
El embrujo de Melquíades (oboes)
                    B
Úrsula (cien años) dónde estás (Macondo)
MIm                 B
Úrsula (cien años) dónde estás (Macondo)

MIm                        B
Eres epopeya de pueblo olvidado
                                    MIm
Forjado en cien años de amores e historias
                       B
Eres epopeya de pueblo olvidado
                                     MIm
Forjado en cien años de amores e historias
      D        C         B
Te imagino y vuelvo a vivir
        D         C        B
En mi memoria quemada al sol

              MI                 B
Mariposas amarillas, Mauricio Babilonia
                                  MI
Mariposas amarillas que vuelan liberadas
                                  B
Mariposas amarillas, Mauricio Babilonia
                                 MI
Mariposas amarillas que vuelan liberadas

*Se repite el requinto...
*Continua la misma progresión de acordes

Las tristezas de Aureliano
La belleza de Remedios [violines]
Las pasiones de Amaranta (guitarras)
El embrujo de Melquíades (oboes)

Úrsula (cien años) dónde estás (Macondo)
Úrsula (cien años) dónde estás (Macondo)

Eres epopeya......
Suggest correction
Give kudos to tab author, rate the tab!
1 2 3 4 5
comments
print report bad tab
guest
You may want to rate the tab now too:
select rating
Wanna post a correction for this tab? Suggest correction