Oops, an error
Loading. Please wait.

Por Tí Tab

version 1
version 1

Whole song

117 views 1 this week
no commentswrite comment
1 2 3 4 5
2 more votes to show rating
add to favorites
launch autoscroll
font size
0
reset
how to read this tab
guitar tuner
×
Best way to learn
"Por Tí"
Autoscroll
slow
fast
+/-
esc
set tempo
stop
[Es una colaboracion que envie yo mismo a ATAME]
[esta es una mejora]

Las notas dentro de paréntesis son opcionales, y
sustituyen a las notas que se encuentran una
cuerda arriba.

El requinto se repite 2 veces, la tabulación
inferior indica los cambios para la segunda vez (o vuelta).


e|-3--------3--2--0-|-2--------2-------|
B|-------1----------|-------1-----1----|
G|----0-------------|----2-----------2-|
D|-2----------------|-0----------------|
A|------------------|------------------|
E|------------------|------------------|
   Am7                D7
 |-3--------3--8--8-|
 |-------1----------|
 |----0-------------|
 |-2----------------|
 |------------------|
 |------------------|


e|-2--------2--0----|-0--------0-------|
B|-------3--------3-|-------0-----0----|
G|----4-------------|----0-(0)-------0-|
D|------------------|---(2)------------|
A|------------------|-3----------------|
E|-3----------------|------------------|
   Gsus7              Cmaj7
 |-2--------2--7--7-|
 |-------3----------|
 |----4-------------|
 |------------------|
 |------------------|
 |-3----------------|


e|-0--------0-------|----------2-------------|
B|-------1-----1----|-4--2--4--------4--2--4-|
G|----0-(0)-------0-|-------------2----------|
D|---(2)------------|----------4--------4--4-|
A|-0----------------|------------------------|
E|------------------|------------------------|
  Am7                B7


e|-0--------0-------|-0--------0-------|
B|-------0-----0----|-------0-----0----|
G|----0-----------0-|----1-----------1-|
D|------------------|------------------|
A|-2----------------|-2----------------|
E|------------------|------------------|
  Em                 E7
 |-0----------------|
 |-0----------------|
 |-0----------------|
 |-2----------------|
 |-2----------------|
 |-0----------------|


El requinto (o como se llame) sobre los versos:

  R1             R2             R3
e|-3--5--7-    e|-2--3--5-    e|-5--7--8--
B|-5--7--8-    B|-3--5--7-    B|-7--8--10-


       R1                         R2
Por ti... yo dejé de pensar en el mar
       R3                          R1
Por tí... yo dejé de fijarme en el cielo
Suggest correction
Give kudos to tab author, rate the tab!
1 2 3 4 5
comments
print report bad tab
guest
You may want to rate the tab now too:
select rating
Wanna post a correction for this tab? Suggest correction