Oops, an error
Loading. Please wait.

Por Tí Tab

version 2
version 2

Whole song

70 views 1 this week
no commentswrite comment
1 2 3 4 5
3 more votes to show rating
add to favorites
×
Save as Personal and add changes to this tab that will be seen only by you. Learn more ›
launch autoscroll
font size
0
reset
how to read this tab
guitar tuner
Autoscroll
slow
fast
+/-
esc
set tempo
stop
vi las otras letras y no tienen muy bien el arpejio,
esta es la correcta:


e-3----3-2-0-2----2---2----2-0---0----0---0----0----------2
B---1----------1---1----1------3---0---0----1----4-2-4-----
G----2----------2---2----2----------0---0----2---------2---
D-2----2-2-0-0-------------------2--------2----2--------4--
A---------------------2----2-2-2--------------------------2
E----------------------------------------------------------

e-------0-
B-4-2-4---
G---------  x 2
D-------2-
A---------
E---------

Esta es la perte mas complicada, loo demas es solo:

  Em   B7   Am   Em   Am   D7   G   Em   Am   B7   Em

Y el final es igual.


e-3----3-2-0-2----2---2----2-0---0----0---0----0----------2
B---1----------1---1----1------3---0---0----1----4-2-4-----
G----2----------2---2----2----------0---0----2---------2---
D-2----2-2-0-0-------------------2--------2----2--------4--
A---------------------2----2-2-2--------------------------2
E----------------------------------------------------------

e-------
B-4-2-4-
G-------
D-------    Em
A-------
E-------


suerte.
Suggest correction
Give kudos to tab author, rate the tab!
1 2 3 4 5
comments
print report bad tab
guest
You may want to rate the tab now too:
select rating
Wanna post a correction for this tab? Suggest correction