Oops, an error
Loading. Please wait.

Llorarás Bass Tab

version 1
version 1

Whole song

482 views 1 this week
no commentswrite comment
1 2 3 4 5
3 more votes to show rating
add to favorites
launch autoscroll
font size
0
reset
guitar tuner
×
Best way to learn
"Llorarás"
Autoscroll
slow
fast
+/-
esc
set tempo
stop
g|----9--------7---5---5----------7-------9--|
d|-7-------5---------5---------7--------9----|esta parte va desde 0:00
a|--------------------------5---------7------|hasta 2:19
e|-------------------------------------------|

despues viene este corte
g|----9--------7---5---5--------------------|
d|-7-------5---------5---------6---9---7----|
a|---------------------------7--------------|
e|------------------------------------------|
despues viene una introduccion de piano desde 2:14 hasta 2:18,

despues viene esto:
(2:19)
g|-------------------|
d|-------------------| se repite hasta el final de la cancion.
a|-------5--7--5-----|
e|-5--7-----------5--|
Suggest correction
Give kudos to tab author, rate the tab!
1 2 3 4 5
comments
print report bad tab
guest
You may want to rate the tab now too:
select rating
Wanna post a correction for this tab? Suggest correction