Oops, an error
Loading. Please wait.

Llorarás Bass Tab

version 2
version 2

Whole song

575 views 3 this week
no commentswrite comment
1 2 3 4 5
3 more votes to show rating
add to favorites
launch autoscroll
font size
0
reset
guitar tuner
Autoscroll
slow
fast
+/-
esc
set tempo
stop
Help us to improve Ultimate-Guitar.com Take our survey!
×
g|-9--7-5-5---------|
d|7--5---5---7---9--|x25
a|----------5-5-7-7-|osea hasta el minuto 2:11
e|------------------|

     despues se realiza el siguiente cambio
g|-9--7-5-5-----------|
d|7--5---5---7---6-9-7|
a|----------5-5-7-----|
e|--------------------|esperamos un momento

     y cuando vuelve se hace esto
g|--|...|------------|
d|7-|...|7--------9-7|
a|--|...|--10-8-7----|x4
e|--|...|------------|

g|-----7-9----|
d|7-10-------7|
a|---------7--|x4
e|------------|

g|------------|
d|7--------9-7|
a|--10-8-7----|x4
e|------------|

g|-----------|
d|7-------9-7|
a|--5-6-7----|x4
e|-----------|

g|------------|
d|7--------9-7|
a|--10-8-7----|x16
e|------------|osea un poco antes de terminar el disco

      y al final se hace esto
g|--------------|
d|7-----------67|
a|--10-8-7-77---|
e|--------------|
Suggest correction
Give kudos to tab author, rate the tab!
1 2 3 4 5
comments
print report bad tab
guest
You may want to rate the tab now too:
select rating
Wanna post a correction for this tab? Suggest correction