Oops, an error
Loading. Please wait.

Taboga Bass Tab

56 views 1 this week
no commentswrite comment
1 2 3 4 5
3 more votes to show rating
add to favorites
launch autoscroll
font size
0
reset
guitar tuner
Autoscroll
slow
fast
+/-
esc
set tempo
stop
Help us to improve Ultimate-Guitar.com Take our survey!
×
Hola camaradas bajistas, he vuelto con este tema que se
presenta por sí solo y que no debe faltar en una
buena fiesta:


Intro

G ----9-----9-9-----|-7-------|-------|---|-------|---|
D -7----------------|-5-(2X)--|---5-3-|---|---3-2-|---|
A -------7-----(2X)-|---------|-5-----|---|-3-----|---|
E ------------------|---------|-------|---|-------|---|

G -------------9-----|-9--------------|
D -2-2--4-6-7------7-|----10-7--------|
A ---------------7---|----------10-10-|
E -------------------|----------------|

Versos:

"En esta noche callada, que mi tormento ahoga..."


G ----9--------9----|-7-----7----|------7---|-------9------|---|
D -7--------7-----7-|----7-----7-|----7---7-|----9---------|-7-|
A -------7----------|------------|-5--------|-7-------(2X)-|---|
E ------------------|------------|----------|--------------|---|

G -----|-9---9-7-|
D ---7-|---7-----|
A -7---|---------|
E -----|---------|

"Quiero cantarte Taboga, viendo tu luna plateada..."

G ---7-----|---------9-----|-9-------|-11-----|-11-------|---|
D -7---7---|----6-7------7-|---7-8-9-|------9-|-----9----|-9-|
A -------5-|-7---------7---|---------|----9---|--------7-|---|
E ---------|---------------|---------|--------|----------|---|

G --9-7------|
D ------10-9-|
A -----------|
E -----------|


"Taboga, reina de las flores, eres mi inspiración..."

G ---9------|------11------11--|---11---|-------9-|-------9---|
D -7------7-|-7-------11-9-----|-9----9-|----9----|----9----7-|
A -----7----|---9------------9-|--------|-7-------|-7---------|
E ----------|------------------|--------|---------|-----------|

G -9-|---|-9-|
D ---|-7-|---|
A ---|---|---|
E ---|---|---|

"Porque sentí una pasión que me llenó de amores..."

G ------|------|--------|----------11-|-----|-11---|-------9-------|
D -7--7-|-9--9-|-11--11-|-10-10-9-----|---9-|----9-|----9-----(2X)-|
A ------|------|--------|-------------|-9---|------|-7-------------|
E ------|------|--------|-------------|-----|------|---------------|

G ---|-----|-----|-----|-----|-9---|
D ---|-7-7-|-----|-9-9-|-----|---9-|
A ---|-----|-9-9-|-----|-7-7-|-----|
E ---|-----|-----|-----|-----|-----|

"Taboga, eres tu tan bella que no te puedo olvidar..."

G ----9-----|----11-------|-11------|-11-------|-----9-|
D -7------7-|--------11-9-|-------9-|----9-----|-6-9---|
A ------7---|-9-----------|----9----|------9-7-|-------|
E ----------|-------------|---------|----------|-------|

G ---9----9-|-------9--------|
D -9---7----|----7-----------|
A ----------|-7-------7-(2x)-|
E ----------|----------------|

"Bajo tu manto de estrellas, sí, quiero vivir y soñar..."

G -6-9-7-|---7------|------|---11------|-----|-9---|
D -------|-7---7----|----7-|------11-9-|-----|---7-|
A -------|--------8-|-7----|-9---------|-9-7-|-----|
E -------|----------|------|-----------|-----|-----|

G -9-6----|-9------9-|
D ------9-|---9------|
A --------|------7---|
E --------|----------|

Solo de trombón:

G ------|------|--------|----------11------|-11---|-------9-------|
D -7--7-|-9--9-|-11--11-|-10-10-9--------9-|----9-|----9-----(2X)-|
A ------|------|--------|--------------9---|------|-7-------------|
E ------|------|--------|------------------|------|---------------|

G ----9--------|
D -7-----------|
A ------7-(2X)-|
E -------------|

"Porque sentí una pasión que me llenó de amores..."

G ------|------|--------|----------11-----|-11---|-------9-------|
D -7--7-|-9--9-|-11--11-|-10-10-9-------9-|----9-|----9-----(2X)-|
A ------|------|--------|-------------9---|------|-7-------------|
E ------|------|--------|-----------------|------|---------------|

G ---|-----|-----|-----|-----|-9---|
D ---|-7-7-|-----|-9-9-|-----|---9-|
A ---|-----|-9-9-|-----|-7-7-|-----|
E ---|-----|-----|-----|-----|-----|

"Taboga, eres tu tan bella que no te puedo olvidar..."

G ----9-----|------11----|-11-------|-11----------|-----9-9-|
D -7------7-|-7--------9-|--------9-|----11---9---|-6-9-----|
A ------7---|----9-------|-----9----|-----------7-|---------|
E ----------|------------|----------|-------------|---------|

G -------|-9-----|-9-----------|
D -9-9---|---9-7-|------7-(3X)-|
A -----7-|-------|---7---------|
E -------|-------|-------------|

"Bajo tu manto de estrellas, sí, quiero vivir y soñar..."

G -9---7-|---7------|-9--------|---11------|
D ---7---|-7---7----|---9----7-|------11-9-|
A -------|--------8-|------7---|-9---------|
E -------|----------|----------|-----------|

G -----|-9-|---6-9----|
D -----|---|-7--------|
A -9-7-|---|--------7-|
E -----|---|----------|

Entrada al montuno:

G ----6-9-|-------9-|-7-7-|
D -7------|----9----|-----|
A --------|-7-------|-----|
E --------|---------|-----|

G ----6-9---|---9-----7-|-----------|---9---|
D -7--------|-9---9-----|-7---------|-9---7-|
A --------7-|-----------|---9-----7-|-------|
E ----------|-----------|------10---|-------|

Montuno:

G -6-9-|-------9-|-7---7-|-------9---|
D -----|----9----|---7---|----9----7-|
A -----|-7-------|-------|-7---------|(4X)
E -----|---------|-------|-----------|

Mambo:

G ---9-----*|*-6-9----|-9---9-|-7---7----|
D -9-----7-*|*--------|---9---|---7------|
A -----7---*|*------7-|-------|--------7-|
E ---------*|*--------|-------|----------|

G -7-9/10-9---|-6-9---|---9---|-7---7---|-9-7-9-|---*|*
D ----------7-|-------|-9---9-|---7-----|-------|---*|*
A ------------|-----7-|-------|-------7-|-------|-7-*|*
E ------------|-------|-------|---------|-------|---*|*

Fin del mambo:

G ---9---|
D -9---7-|
A -------|
E -------|

Montuno (mismos arreglos)

Fin:

G ---------9-|-7-|---|---|
D ------9----|---|-9-|---|
A -7-7-------|---|---|-7-|
E -----------|---|---|---|

Esta es toda la canción. Tiene sus detalles, pero está bien completa.
Un abrazo y hasta la próxima.
Suggest correction
Give kudos to tab author, rate the tab!
1 2 3 4 5
comments
print report bad tab
guest
You may want to rate the tab now too:
select rating
Wanna post a correction for this tab? Suggest correction