Oops, an error
Loading. Please wait.

Guri Pescador Tab

29 views 1 this week
no commentswrite comment
1 2 3 4 5
3 more votes to show rating
add to favorites
launch autoscroll
font size
0
reset
how to read this tab
guitar tuner
×
Best way to learn
"Guri Pescador"
Autoscroll
slow
fast
+/-
esc
set tempo
stop
Mejore un poco el tema, le agregue la intro y cambie un
poco el arpegiado...salute pelusa

Recitado: Con una caña de bambú- un perro lanudo-un tarrito
con lombrices...y entre los verdes juncos: las mojarras.
Aún veo aquella tararira- lujosa- como la vaina de un cuchillo
 de plata- ¡tan parecida al sueño de un gurí Pescador...


e-----------------------------------------------------------------
b-------5--7/5----3--5/3----2--3/2------0--2-2/0------------------
g-----6--------6--4------4--2-------2---1--------1----------------
d---7-----------------------2-----------0-------------2--2/7------
a-0---------------4---------------------2-------------------------
E---------------------------------------0-------------------------

e----6---6--6/12--13----------------------------------------------
b---7---7---7/13--14----------------------------------------------
g--7---7----7/13--14----------------------------------------------
d------------------------<>-12------------------------------------
a-----------------------------------------------------------------
E-----------------------------------------------------------------


(acordes arpegiados)

A7                    D     cuando cae en D hace: e----2--------
Hay un reino bajo el agua                         b---3--3/7--7-
                   A                              G--2----------
un sauce me lo contó                              d-0----------
E-0-2--(F#7)           Bm   aca hace: e----2----------------
donde el pejerrey escucha             b---3-3---------------
                                      g--4---4--------------
                                      d-------4-4/7--7----6-
                                      a-2----------------5--

                    A              aca hace: E----0-----------
y canta el bagre cantor.                     b---2-2/10----10-
A7                  Dm(lo mismo pero en Dm)  g--2-------------
En la taipa de un asube                      d-----------11---
                    A                        A-0--------------
yo ví un gurí pescador
  F#7                      Bm
que confundiendo a las piavas
       a-2-0----0
       E-----4---     (A)
les cantaba esta canción.


Estribillo: ritmo de chamarrita

     A         E7
Tararira - Tararira
                          A
que arisca y sabia que estás
                   E7
anzuelo que cae al agua
  E                A
mojarra que te llevás
A             Dm
pica pica Tararira
                   A
plata viva del juncal
                        E7
mientras no se corte el hilo
         E             A
junto al agua me hallarás.

aca hace todo igual que antes:

  A7                 D
Y yo que crecí en silencio
                    A
bajo los sauces del Yí

  F#7                Bm
cobrizo de soles largos
                    A
comprendo bien al gurí.

A7                       Dm
Siempre la suerte fue esquiva
                    A
cual los peces para mí
  F#7                      Bm
pero el me enseñó estas coplas
      E                  A
que alumbran como un candil.


Estribillo. Tararira...


Vamo a subir mas folclore uruguayo y argentino gente que algo
falta y la verdad que es una pena que algo tan tradicional y
lindo se nos escape....santiagoshaw@
Suggest correction
Give kudos to tab author, rate the tab!
1 2 3 4 5
comments
print report bad tab
guest
You may want to rate the tab now too:
select rating
Wanna post a correction for this tab? Suggest correction