Oops, an error
Loading. Please wait.

Más Cerveza Tab

13 views 1 this week
no commentswrite comment
1 2 3 4 5
3 more votes to show rating
add to favorites
launch autoscroll
font size
0
reset
how to read this tab
guitar tuner
Autoscroll
slow
fast
+/-
esc
set tempo
stop
Help us to improve Ultimate-Guitar.com Take our survey!
×
0:57

e---------------------------------------------------------
b---------------------------------5-----3s5--5b-5----------
g----------------------------3s5b---7-5-----------7-5------
d----------5-5-7-5------7-7--------------------------7v-----
a------7-7---------8-8------------------------------------
E--8-8-----------------------------------------------------

e-----------------------------------
b-------12--10--8-8---8--10--8--9------------
g--8s9--------------9--------------10-10v----
d----------------------------------------
a---------------------------------------
E----------------------------------------


e-----------------------------------------------------------
b---14-13b-13-15-13---------------------------------------------
g-------------------14-10-10v----10-9-9-10-9-7-9-7-5-5-5-5-7-5v----
d--------------------------------------------------------------
a------------------------------------------------------------
E----------------------------------------------------------
Suggest correction
Give kudos to tab author, rate the tab!
1 2 3 4 5
comments
print report bad tab
guest
You may want to rate the tab now too:
select rating
Wanna post a correction for this tab? Suggest correction