Oops, an error
Loading. Please wait.

Alegría Tab

42 views 1 this week
no commentswrite comment
1 2 3 4 5
3 more votes to show rating
add to favorites
launch autoscroll
font size
0
reset
how to read this tab
guitar tuner
×
Best way to learn
"Alegría"
Autoscroll
slow
fast
+/-
esc
set tempo
stop
Esta transcripcion esta 100% correcta.

Intro
    x3      x3      x3      x3
1 --0---0---0---0---0---0---0---0--|
2 --1---0---1---3---1---0---1---3--|
3 --0---0---0---0---0---0---0---0--|
4 --2---2---2---2---2---2---2---2--|
5 --3---3---3---3---3---3---3---3--|
6 --0---0---0---0---0---0---0---0--|

Verso Pt1
    x8  x8  x4  x4  x4  x3
1 --0---3---0---3---0---3--|
2 --1---0---1---0---1---0--|
3 --0---0---0---0---0---0--|
4 --2---0---2---0---2---0--|
5 --3---2---3---2---3---2--|
6 --0---3---0---3---0---3--|

Verso Pt2
                           x12 x12
1 ---------------------------------|
2 ---------------------------------|
3 ---------------------------------|
4 --45555555-45555555555-----------|
5 --23333333-23333333333---3---3---|
6 -------------------------1---1---|

Coro
    x16  x16  x16  x16
1 ---------------------|
2 ---------------------|
3 ---------------------|
4 --5----3----5----3---|
5 --5----3----5----3---|
6 --3----1----3----1---|

Verso Pt3
                 x16 x8                             x16
1 -----------------------------------------------------|
2 -----------------------------------------------------|
3 -----------------------------------------------------|
4 --555---555---5----5--666677778888777766666666-------|
5 --333---333---33---3--444455556666555544444444----3--|
6 ---------------1----------------------------------1--|

Coro Pt2 (la ra la la)  (los niños cantan....)
    x5  x8  x8  x8  x8  x8  x8
1 -----------------------------|
2 -----------------------------|
3 -----------------------------|
4 --3---5---3---5---3---5---3--|
5 --3---5---3---5---3---5---3--|
6 --1---3---1---3---1---3---1--|

Verso Pt Final
    x8  x8
1 --0---3--|
2 --1---0--|
3 --0---0--|
4 --2---0--|
5 --3---2--|
6 --0---3--|

Fin en

1 --3---0---0---0--|
2 --0---1---0---1--|
3 --0---0---0---0--|
4 --0---2---2---2--|
5 --2---3---3---3--|
6 --3---0---0---0--|

ORDEN DE LA CANCION:
Intro
Verso Pt1
Verso Pt2
Coro Pt1
Verso Pt3
Coro Pt1 x2
Coro Pt2
Verso Pt Final
Fin en

estoy seguro que esta correcta por que vi el video
de la cancion en vivo.

¡¡¡ARRIBA EL OTRO YO LA MEJOR BANDA ARGENTINA!!!
Suggest correction
Give kudos to tab author, rate the tab!
1 2 3 4 5
comments
print report bad tab
guest
You may want to rate the tab now too:
select rating
Wanna post a correction for this tab? Suggest correction