Oops, an error
Loading. Please wait.

Bendición Tab

15 views 1 this week
no commentswrite comment
1 2 3 4 5
3 more votes to show rating
add to favorites
×
Save as Personal and add changes to this tab that will be seen only by you. Learn more ›
×
You can save this tab as Personal to edit and correct it or add notes. All changes will be seen only by you. Learn more »
save as personal
new!
launch autoscroll
font size
0
reset
how to read this tab
guitar tuner
Autoscroll
slow
fast
+/-
esc
set tempo
stop
intro:'u u uu u...'
e|-5---5-----5-5---5-----5-5--|
A|-5-5X5-555x5-5-5x5-555x5-5--|
D|-7-7X7-777x7-7-7x7-777x7-7--|
G|-7-7X7-777x7-7-7x7-777x7-7--|
B|-5-----------5-----------5--|
E|----------------------------|
PM     * **  *     * ***
el sonido se hace en base a la primer nota e|-5-|
                                           A|-5-|
                                           D|-7-|
                                           G|-7-|
                                           B|-5-|
                                           E|---|
verso:'podes salir ahora...'
e|--------------|
A|-5-5-5-5-5-5--|
D|-6-6-6-7-7-7--|
G|-7-7-7-7-7-7--| 4x
B|-7-7-7-5-5-5--|
E|-5-5-5-5-5-5--|

estribillo:'esperando la bendicion...'
guitarra1
e|--------------|
A|-5-5-5-5-5-5--|
D|-5-5-5-7-7-7--|
G|-7-7-7-7-7-7--| 4x
B|-7-7-7-5-5-5--|
E|-5-5-5-5-5-5--|
guitarra2
e|-------------------|
A|--2------2/3/2-----|
D|----2----------2---|
G|-------------------|
B|-------------------|
E|-------------------|

verso2:'...'
e|--------------|
A|-5-5-5-5-5-5--|
D|-6-6-6-7-7-7--|
G|-7-7-7-7-7-7--| 4x
B|-7-7-7-5-5-5--|
E|-5-5-5-5-5-5--|

estribillo:'esperando la bendicion...'
guitarra1
e|--------------|
A|-5-5-5-5-5-5--|
D|-5-5-5-7-7-7--|
G|-7-7-7-7-7-7--| 4x
B|-7-7-7-5-5-5--|
E|-5-5-5-5-5-5--|
guitarra2
e|-------------------|
A|--2------2/3/2-----|
D|----2----------2---|
G|-------------------|
B|-------------------| 4x
E|-------------------|

intermedio:'y el hambre...'
e|------------------|
A|-5-5-5-5-5-5-5-5--|
D|-5-5-5-7-7-7-5-5--|
G|-7-7-7-7-7-7-7-7--| 4x
B|-7-7-7-5-5-5-7-7--|
E|-5-5-5-5-5-5-5-5--|

intermedio2:'justicia...'
e|----------|
A|----------|
D|----------|
G|----------|4x
B|--5-5-7b--|
E|----------|

estribillo:'esperando la bendicion...'
guitarra1
e|--------------|
A|-5-5-5-5-5-5--|
D|-5-5-5-7-7-7--|
G|-7-7-7-7-7-7--| 4x
B|-7-7-7-5-5-5--|
E|-5-5-5-5-5-5--|
guitarra2
e|-------------------|
A|--2------2/3/2-----|
D|----2----------2---|
G|-------------------|
B|-------------------|
E|-------------------|

pre-verso:
e|---3-2-0-----------------0-3-2-0-----0-7-5-|
A|---------3-2-0---------0-----------0-------|
D|---------------3-5-3-3-----------3---------|
G|-------------------------------------------| 2x
B|-------------------------------------------|
E|-------------------------------------------|

e|----------------|
A|----------------|
D|-12-11-9--7-9---|
G|-12-11-9--7-9-7-|
B|-10--9-7--5-7-7-|
E|--------------5-|


'veo gente humilde...'
    SOL   RE
e|-33333x22222--|
A|-00000x33333--|
D|-00000x22222--|
G|-00000x00000--|
B|-22222x00000--|
E|-33333x00000--|

intermedio2:'arriba los corazones...'
e|----------|
A|----------|
D|----------|
G|----------|
B|--5-5-7b--|
E|----------|

estribillo:'esperando la bendicion...'
guitarra1
e|--------------|
A|-5-5-5-5-5-5--|
D|-5-5-5-7-7-7--|
G|-7-7-7-7-7-7--| 
B|-7-7-7-5-5-5--|
E|-5-5-5-5-5-5--|
guitarra2
e|-------------------|
A|--2------2/3/2-----|
D|----2----------2---|
G|-------------------| 
B|-------------------|
E|-------------------|

final:'dando, recibiendo...'
guitarra1
e|--------------|
A|-5-5-5-5-5-5--|
D|-5-5-5-7-7-7--|
G|-7-7-7-7-7-7--| 
B|-7-7-7-5-5-5--|
E|-5-5-5-5-5-5--|

guitarra2
e|-------------------|
A|--2------2/3/2-----|
D|----2----------2---|
G|-------------------|
B|-------------------|
E|-------------------|

final2:
e|---------------10---|
A|--8-7-8-7-8-10------|
D|--------------------|
G|--------------------|
B|--------------------|
E|--------------------|


Eso es todo, para comentarios, pedidos, puteadas, correccion etc. 
mandenmen un mail a gustavomenin@
Suggest correction
Give kudos to tab author, rate the tab!
1 2 3 4 5
comments
print report bad tab
guest
Wanna post a correction for this tab? Suggest correction