Oops, an error
Loading. Please wait.

Hoy Aprendí Bass Tab

37 views 6 this week
no commentswrite comment
1 2 3 4 5
3 more votes to show rating
add to favorites
launch autoscroll
font size
0
reset
guitar tuner
×
Best way to learn
"Hoy Aprendí"
Autoscroll
slow
fast
+/-
esc
set tempo
stop
INTRO
F|-------------------------------------------|
C|-------------------------------------------|
G|----7----------7----------7----------7-----|
D|-5-5--5-5-0-5-5--5-5-0-4-4--4-4-0-4-4--4-4-|

F|---------------------------------------------|
C|------2----------2---------------------------|
G|----------------------------7----------7-----|
D|-0-2-2--2-2-0-2-2--2-2-0-5-5--5-5-0-5-5--5-5-|

VERSO
F|--------------------------------------------------|
C|-7-7-7--------7-7-7--------6-6-6--------6-6-6-----|
G|-------7-7--7-------7-7--7-------7-7--7-------7-7-|
D|--------------------------------------------------|

F|-------------------------------------------------|
C|-----------------------------7-7-7-----9-7-6-7---|
G|-7-9-9-9-7-7--7-9-9-9-7-7--7-------7-7---------7-|
D|-------------------------------------------------|

F|--------------------------------------------------|
C|-7-7-7--------7-7-7--------6-6-6--------6-6-6-----|
G|-------7-7--7-------7-7--7-------7-7--7-------7-7-|
D|--------------------------------------------------|

F|----------------6-6-6-------------------------------|
C|-----------------------------7-7-7--------9-7-6-7---|
G|-7-9-9-9-7-7--7-------7-7--7-------7-7--7---------7-|
D|----------------------------------------------------|

VERSO (DISTORSION)
F|-------------------------------------------------------------|
C|-------------------------------------------------------------|
G|-------------------------------------------------------------|
D|-5-5-5-5-5-5-5-5-5-5-5-5-5-5-5-4-4-4-4-4-4-4-4-4-4-4-4h5-4-0-|

F|---------------------------------------------------------------|
C|---------------------------------------------------------------|
G|---------------------------------------------------------------|
D|-2-2-2-2-2-2-2-2-2-0-0-2-2-4-4-5-5-5-5-5-5-5-5-5h7-9h10-10-9-7-|

F|-------------------------------------------------------------|
C|-------------------------------------------------------------|
G|-------------------------------------------------------------|
D|-5-5-5-5-5-5-5-5-5-5-5-5-5-5-5-4-4-4-4-4-4-4-4-4-4-4-4h5-4-0-|

F|-----------------------------------------------------------|
C|-----------------------------------------------------------|
G|-----------------------------------------------------------|
D|-2-2-2-2-2-2-2-2-2-0-0-2-2-4-4-5-5-5-5-5-5-5-5-7-7-9-9-9-9-|

CORO
F|--------------------------------------------------------|
C|--------------------------------------------------------|
G|--------------------------------------------------------|
D|-10--9-7-9--7-9-10--9-7-5--7-9-10--9-7-9--7-9-10-/14-12-|

F|---------------------|
C|---------------------|
G|----7----------7-----|
D|-5-5--5-5-0-5-5--5-5-|

VERSO
F|--------------------------------------------------|
C|-7-7-7--------7-7-7--------6-6-6--------6-6-6-----|
G|-------7-7--7-------7-7--7-------7-7--7-------7-7-|
D|--------------------------------------------------|

F|-----------------------------------------------------|
C|-----------------------------7-7-7-----9-7-6-7-9-7-6-|
G|-7-9-9-9-7-7--7-9-9-9-7-7--7-------7-7---------------|
D|-----------------------------------------------------|

F|--------------------------------------------------|
C|-7-7-7--------7-7-7--------6-6-6--------6-6-6-----|
G|-------7-7--7-------7-7--7-------7-7--7-------7-7-|
D|--------------------------------------------------|

F|----------------6-6-6-----------------------------------|
C|-----------------------------7-7-7--------9-7-6-7-9-7-6-|
G|-7-9-9-9-7-7--7-------7-7--7-------7-7--7---------------|
D|--------------------------------------------------------|

VERSO (DISTORSION)
F|-------------------------------------------------------------|
C|-------------------------------------------------------------|
G|-------------------------------------------------------------|
D|-5-5-5-5-5-5-5-5-5-5-5-5-5-5-5-4-4-4-4-4-4-4-4-4-4-4-4h5-4-0-|

F|---------------------------------------------------------------|
C|---------------------------------------------------------------|
G|---------------------------------------------------------------|
D|-2-2-2-2-2-2-2-2-2-0-0-2-2-4-4-5-5-5-5-5-5-5-5-5h7-9h10-10-9-7-|

F|-------------------------------------------------------------|
C|-------------------------------------------------------------|
G|-------------------------------------------------------------|
D|-5-5-5-5-5-5-5-5-5-5-5-5-5-5-5-4-4-4-4-4-4-4-4-4-4-4-4h5-4-0-|

F|-----------------------------------------------------------|
C|-----------------------------------------------------------|
G|-----------------------------------------------------------|
D|-2-2-2-2-2-2-2-2-2-0-0-2-2-4-4-5-5-5-5-5-5-5-5-7-7-9-9-9-9-|

CORO
F|-------------------------------------------------------------|
C|-------------------------------------------------------------|
G|-------------------------------------------------------------|
D|-10--9-7-9--7-9-10--9-7-5--7-9-10--9-7-9--7-9-10--9-7-5--7-9-|

F|--------------------------------------------------------|
C|--------------------------------------------------------|
G|--------------------------------------------------------|
D|-10--9-7-9--7-9-10--9-7-5--7-9-10--9-7-9--7-9-10--9-7-5-|

SOLO
F|----------------------------------------------------------------|
C|.-4-4-4-4-4-4-4-2-4-4-4-4-4-2-4-6-7-7-7-7-7-7---7-7-7-7-7-6-7-9-|
G|.---------------------------------------------7-----------------|
D|----------------------------------------------------------------|

F|----------------------------------------------------------------|
C|---------------------------------------------------------------.|
G|-7-7-7-7-7-7-7-7---7-7-7-7-7-7-7-5-5-5-5-5-5-5-5-4-4-4-2-2-2---.|X4
D|-----------------7-------------------------------------------5--|
basicamente es la misma base durante todo el solo, pero en la 5º
vuelta hay un arreglo que me parecio importante poner
F|----------------------------------------------------------|
C|-4-4-4-4-4-4-4-2-4-4-4-4-4-2-4-6-7-7-7-7-7-7---7-9-11-9-7-|
G|---------------------------------------------7------------|
D|----------------------------------------------------------|

F|------------------------------------------------------------|
C|------------------------------------------------------------|
G|-7-7-7-7-7-7-7-7---7-9-11-9-7-5-5-5-5-5-5-5-5-4-4-4-2-2-2---|
D|-----------------7----------------------------------------5-|
despues es lo mismo hasta el final
F|----------------------------------------------------------------|
C|.-4-4-4-4-4-4-4-2-4-4-4-4-4-2-4-6-7-7-7-7-7-7---7-7-7-7-7-6-7-9-|
G|.---------------------------------------------7-----------------|
D|----------------------------------------------------------------|

F|----------------------------------------------------------------|
C|---------------------------------------------------------------.|
G|-7-7-7-7-7-7-7-7---7-7-7-7-7-7-7-5-5-5-5-5-5-5-5-4-4-4-2-2-2---.|X2
D|-----------------7-------------------------------------------5--|

F|-------|
C|-------|FIN
G|-------|
D|-2-2-2-|

ahi lo tienen, escuchen la cancion asi lo sacan mas facil
ya saben, cualkier cosa...
saludos para salta
Suggest correction
Give kudos to tab author, rate the tab!
1 2 3 4 5
comments
print report bad tab
guest
You may want to rate the tab now too:
select rating
Wanna post a correction for this tab? Suggest correction