Oops, an error
Loading. Please wait.

La Música Tab

version 1
version 1

Whole song

70 views 1 this week
no commentswrite comment
1 2 3 4 5
3 more votes to show rating
add to favorites
launch autoscroll
font size
0
reset
how to read this tab
guitar tuner
Autoscroll
slow
fast
+/-
esc
set tempo
stop
Help us to improve Ultimate-Guitar.com Take our survey!
×
Bueno primero q nada quiero desirles q hice este trabajo porque
es una cancion muy loka del otro yo
y para mi creo q es la mas acertada a la original
solo ponganle sentimiento y ya....
arriba El OtrO yo !!

Akordes...
                              Un saludo ami karnal
     E A D G B E               el akua q le gusta EoY...
                                O_o ...
E    x 2 2 x x x
A5   5 7 7 x x x
B5   7 9 9 x x x
G5   3 5 5 x x x
F#5  2 4 4 x x x
G#5  4 6 6 x x x

IntrO ...

e|----------------------------------|
b|-------------------9--------------|
g|--------9-------9-----(9)---------|
d|-----9----------------------------|
a|--7----------9--------------------|
e|----------------------------------|

..Estoy un poco sordo; ..que??
y un poco ciego; (ahahahhh....)
..me estaré quedando
desefectivizado..!

   A5                   B5
La música que escuchan todos
   A5                   B5
La música que escuchan todos
A5 G#5 F#5   G#5   G5
Yo no  la  escu - cho
A5 G#5  F#5  G#5   F#5
y  es - ta sonan - do


 E                F#5
La vida de los planetas   <----- Aqui denle un toque bajo
   G5                A5       para q no se eskuche tan grueso
Son nubes que se mezclan           el sonido ok...
 E                    F#5
canciones de la nueva era
 G5            A5
rondan en mi mente

  A5                   B5
La música que escuchan todos
   A5                   B5
La música que escuchan todos
A5 G#5 F#5   G#5   G5
Yo no  la  escu - cho
A5 G#5  F#5  G#5   F#5
y  es - ta sonan - do


Luego toca esto:
e|--------------------------------12----|
b|-----------------------------12-------|
g|------9-------------------11----------|
d|----9---------------------------------|
a|--7-----------------------------------|
e|--------------------------------------|
   Estoy un poco sordo, y un poco ciego

e|-------12-------------------------12--------|
b|----12-------------------------12----(12)---|
g|--10----------------------11----------------|
d|--------------------------------------------|
a|--------------------------------------------|
e|--------------------------------------------|
   un poco empobrecido, un poco descreído

e|-------12-------------------------12--------|
b|----12-------------------------12----(12)---|
g|--10----------------------11----------------|
d|--------------------------------------------|
a|--------------------------------------------|
e|--------------------------------------------|
   artificializados, desnaturalizados

e|-------12---------12-----------12----------12----|
b|----12----12---12----12-----12----12----12----12-|
g|--10--------10-----------11----------11----------|
d|-------------------------------------------------|
a|-------------------------------------------------|
e|-------------------------------------------------|
   estoy manipulado, me siento anarquizado!


   A5            B5 A5 F#5  A5         B5 A5 F#5
..Estoy humanizado? ----- o deshumanizado?

   A5            B5 A5 F#5  A5         B5 A5 F#5
..Estoy humanizado? ----- o deshumanizado?

     A5                     B5                 A5    F#5
En una noche negra sin mi sol, no tengo ni mi luna. Ahh
   A5                     B5                 A5     F#5...
En una noche negra sin mi sol, no tengo ni mi luna. Ahh ...

 E                F#5
La vida de los planetas
   G5                A5     <-----Lo MismO ...
Son nubes que se mezclan      denle un toque bajo
 E                    F#5    para q el sonido no se escuche
canciones de la nueva era      muy fuerte
 G5            A5
rondan en mi mente


   A5                   F#5
Porq la música que escuchan todos  <---- Ojo ...
  A5                   F#5     Aqui kambian los akordes
La música que escuchan todos       ok...
   A5                   F#5
Porq la música que escuchan todos
  A5                   F#5
La música que escuchan todos


   A5            B5 A5 F#5
..Estoy humanizadooo?
                          ...Aqui se tokan los akordes
 (A5-B5-A5-F#5)   x4           en el orden komo van ok...
..yO nO la EscUcHOoo.. x4

Y biEnn..

   A5                     B5                 A5    F#5
En una noche negra sin mi sol, no tengo ni mi luna. Ahh
   A5                     B5                 A5     F#5..
En una noche negra sin mi sol, no tengo ni mi luna. Ahh ..

  Bueno eso es todo
y espero q les guste va???
   Para kualkier duda ...
chekov_01@
   Aguante El OtrO yO...
Suggest correction
Give kudos to tab author, rate the tab!
1 2 3 4 5
comments
print report bad tab
guest
You may want to rate the tab now too:
select rating
Wanna post a correction for this tab? Suggest correction