Oops, an error
Loading. Please wait.

La Música Tab

version 2
version 2

Whole song

1 view 1 this week
no commentswrite comment
1 2 3 4 5
3 more votes to show rating
add to favorites
launch autoscroll
font size
0
reset
how to read this tab
guitar tuner
Autoscroll
slow
fast
+/-
esc
set tempo
stop
Help us to improve Ultimate-Guitar.com Take our survey!
×
LA música

Afinación: standard
Tabbed by: Rob 'the stoner' Ferrín

Verse 1:
e|----------------------|
b|-------------------9--|
g|--------9-------9-----| X 6
d|-----9----------------|
a|--7----------9--------|
e|----------------------|

Chorus:
A5                     B5
La música que escuchan todos
A5                     B5
La música que escuchan todos

e|-------------------------------------|
b|-------------------------------------|
g|-------------------------------------| 
d|-------------------------------------|
a|--7-7-7-9-------------7-6-4-2--------|
e|--5-5-5-7-------------5-4-2-0--------|
    yo no la escucho....y está sonando


Verse2:
E5                F#5
La vida de los planetas
    G#5                A5
Son nubes que se mezclan
E5                    F#5
canciones de la nueva era
G#5          A5
rondan en mi mente

(se repite el chorus)

Luego toca esto:
e|--------------------------------12----|
b|-----------------------------12-------|
g|------9-------------------11----------| 
d|----9---------------------------------|
a|--7-----------------------------------|
e|--------------------------------------|
   Estoy un poco sordo, y un poco ciego

e|-------12-------------------------12--------|
b|----12-------------------------12----(12)---|
g|--9-----------------------11----------------| 
d|--------------------------------------------|
a|--------------------------------------------|
e|--------------------------------------------|
   un poco empobrecido, un poco descreído

e|-------12-------------------------12--------|
b|----12-------------------------12----(12)---|
g|--9-----------------------11----------------| 
d|--------------------------------------------|
a|--------------------------------------------|
e|--------------------------------------------|
   artificializados, desnaturalizados

e|-------12---------12-----------12----------12----|
b|----12----12---12----12-----12----12----12----12-|
g|--9----------9-----------11----------11----------| 
d|-------------------------------------------------|
a|-------------------------------------------------|
e|-------------------------------------------------|
   estoy manipulado, me siento anarquizado!

A5                B5
Estoy humanizado!!!
  A5            B5
o deshumanizado
A5                B5
Estoy humanizado!!!
  A5            B5
o deshumanizado

A5                        B5
En una noche negra sin mi sol
              A5      B5
no tengo ni mi luna   ahhhh
A5                        B5
En una noche negra sin mi sol
              A5      B5
no tengo ni mi luna   ahhhh


Bueno, esa es la estructura básica. El resto de la canción repite los riffs anteriores.

Comentarios/sugerencias/amenazas de muerte
bienvenidos: rob_ferrin@
Suggest correction
Give kudos to tab author, rate the tab!
1 2 3 4 5
comments
print report bad tab
guest
You may want to rate the tab now too:
select rating
Wanna post a correction for this tab? Suggest correction