Oops, an error
Loading. Please wait.

Los Pájaros Tab

16 views 1 this week
no commentswrite comment
1 2 3 4 5
3 more votes to show rating
add to favorites
launch autoscroll
font size
0
reset
how to read this tab
guitar tuner
×
Best way to learn
"Los Pájaros"
Autoscroll
slow
fast
+/-
esc
set tempo
stop
Aca esta la misma canción, pero corregida. 
Ya saben, Herrar es Umano


Riff 1

E----------------
B----------------
G--7-7--6-6--7-7-
D--7-7--6-6--7-7-
A--5-5--8-8--5-5-
E----------------

Riff 2

E----------------------------------------------------------------------------------------------
B----------------------------------------------------------------------------------------------
G--7-7--10-10--7-7--10-10--7-7--10-10--11-11--10-10---7-7--10-10--7-7--10-10--7--8-8-8-8-8-8-8-
D--7-7--10-10--7-7--10-10--7-7--10-10--11-11--10-10---7-7--10-10--7-7--10-10--7--8-8-8-8-8-8-8-
A--5-5---8--8--5-5---8--8--5-5---8--8---9--9---8--8---5-5---8--8--5-5---8--8--5--6-6-6-6-6-6-6-
E----------------------------------------------------------------------------------------------

Riff 3

E-----------------------------------
B-----------------------------------
G-----------------------------------
D-----7-------7-------7-7--6-6--5-5-
A--5-----5-5-----5-5----------------
E-----------------------------------

Riff 4

E----------------------------
B-7-7-7-7--6-6--5-5--6-7-6---
A----------------------------
E----------------------------

Riff 5

E-----------------------------------------------------------------------------
B-----------------------------------------------------------------------------
G--7--7-10-11--10-11--7-7--10-11-10-11--7--7-10-11--10-11--7-7--8--8-8-8-8-8--
D--7--7-10-11--10-11--7-7--10-11-10-11--7--7-10-11--10-11--7-7--8--8-8-8-8-8--
A--5--5--8--9---8--9--5-5---8--9--8--9--5--5--8--9---8--9--5-5--6--6-6-6-6-6--
E-----------------------------------------------------------------------------


(Riff 1) Ah! Ah Ah!

Riff 2

(Riff 1) Ah! Ah Ah!
(Riff 1) Ah! Ah Ah!
(Riff 1) Ah! Ah Ah!
(Riff 1) Ah! Ah Ah!

Riff 2

(Sobre Riff 5)
Los pájaros buscan a su madre
Los pájaros quieren cacarear
Los pájaros buscan a su madre
Los pájaros quieren cacarear

(Riff 1) Ah! Ah Ah!
(Riff 1) Ah! Ah Ah!

Riff 3 (x2)
Riff 4 (x2)
Riff 5 (x2)
Riff 3 (x2)

Los pájaros buscan a su madre
Los pájaros quieren cacarear
Los pájaros buscan a su madre
Los pájaros quieren cacarear 

Riff 3 (x2)
Riff 4 (x2)
Riff 5 (x2)
Riff 3 (x2)
Riff 1

Referencias:
/ = Deslizar hasta la cuerda indicada (Slide)
b = Estirar a cuerda hasta cnseguir el sonido indicado (Bending)
x = Tocar la nota anterior apagada (Palm Muted)


Eso es todo, para comentarión pedidos, puteadas, etc. 
mandenmen un mail a neotokio3@

AGUANTE EL OTRO YO!!!!
LA CUMBIA ES UNA MIERDA!!!!
Suggest correction
Give kudos to tab author, rate the tab!
1 2 3 4 5
comments
print report bad tab
guest
You may want to rate the tab now too:
select rating
Wanna post a correction for this tab? Suggest correction