Oops, an error
Loading. Please wait.

Los Pájaros Chords

4 views 1 this week
no commentswrite comment
1 2 3 4 5
3 more votes to show rating
add to favorites
×
Save as Personal and add changes to this tab that will be seen only by you. Learn more ›
×
You can save this tab as Personal to edit and correct it or add notes. All changes will be seen only by you. Learn more »
save as personal
new!
launch autoscroll
font size
0
reset
transpose
0
reset
display chords
guitar tuner
Autoscroll
slow
fast
+/-
esc
set tempo
stop
Strumming
There is no strumming pattern for this song yet. and get +5 IQ
'a,a AA...'
e|---------------|
A|---------------|
D|--77-1010--77--|
G|--77-1010--77--|
B|--55--8-8--55--|
E|---------------|


e|----------------------------------------------------------------|
A|----------------------------------------------------------------|
D|--77-1010-1111-1010-77-1010-77-1010-77-1010-1111-1010-7-888888--|
G|--77-1010-1111-1010-77-1010-77-1010-77-1010-1111-1010-7-888888--| 2x
B|--55--8-8--9-9--8-8-55--8-8-55--8-8-55--8-8--9-9--8-8-5-666666--|
E|----------------------------------------------------------------|

'a,a AA...'
e|---------------|
A|---------------|
D|--77-1010--77--|
G|--77-1010--77--| 4x
B|--55--8-8--55--|
E|---------------|


e|----------------------------------------------------------------|
A|----------------------------------------------------------------|
D|--77-1010-1111-1010-77-1010-77-1010-77-1010-1111-1010-7-888888--|
G|--77-1010-1111-1010-77-1010-77-1010-77-1010-1111-1010-7-888888--| 2x
B|--55--8-8--9-9--8-8-55--8-8-55--8-8-55--8-8--9-9--8-8-5-666666--|
E|----------------------------------------------------------------|

'los pajaros buscan...'
e|--------------------------------------|
A|--------------------------------------|
D|--77x1010xx77x1010xx77x1010xx77x1010--|
G|--77x1010xx77x1010xx77x1010xx77x1010--| 2x
B|--55x-8-8xx55x-8-8xx55x-8-8xx55x-8-8--|
E|--------------------------------------|

'a,a AA...'
e|---------------|
A|---------------|
D|--77-1010--77--|
G|--77-1010--77--| 2x
B|--55--8-8--55--|
E|---------------|

solo:
e|-----------------------------------------------------------------------------------|
A|-----------------------------------------------------------------------------------|
D|-----------------------------------------------------------------------------------|
G|----7---7----776655----7----7----776655--777-666-55-66-77-66-777-666-55-66-77-66---|
B|--5---5---55----------5---5---55---------------------------------------------------|
E|-----------------------------------------------------------------------------------|

solo2:
e|------------------------------------------|
A|------------------------------------------|
D|--77-1010/11-77-1010/11-77-1010/11-1010-8-|
G|--77-1010/11-77-1010/11-77-1010/11-1010-8-| 2x
B|--55--8-8/-9-55--8-8/-9-55--8-8/-9--8-8-6-|
E|------------------------------------------|

e|----------------------------------------------------------------|
A|----------------------------------------------------------------|
D|--77-1010-1111-1010-77-1010-77-1010-77-1010-1111-1010-7-888888--|
G|--77-1010-1111-1010-77-1010-77-1010-77-1010-1111-1010-7-888888--| 2x
B|--55--8-8--9-9--8-8-55--8-8-55--8-8-55--8-8--9-9--8-8-5-666666--|
E|----------------------------------------------------------------|

'los pajaros buscan...'
e|--------------------------------------|
A|--------------------------------------|
D|--77x1010xx77x1010xx77x1010xx77x1010--|
G|--77x1010xx77x1010xx77x1010xx77x1010--| 2x
B|--55x-8-8xx55x-8-8xx55x-8-8xx55x-8-8--|
E|--------------------------------------|

solo2:
e|------------------------------------------|
A|------------------------------------------|
D|--77-1010/11-77-1010/11-77-1010/11-1010-8-|
G|--77-1010/11-77-1010/11-77-1010/11-1010-8-| 2x
B|--55--8-8/-9-55--8-8/-9-55--8-8/-9--8-8-6-|
E|------------------------------------------|

final1:
e|-------------------------------------------|
A|-------------------------------------------|
D|-------------------------------------------|
G|--777-666-55-66-77-66-777-666-55-66-7-66-7-| 2x
B|-------------------------------------------|
E|-------------------------------------------|

final2:
e|---------------|
A|---------------|
D|--77-1010--77--|
G|--77-1010--77--|
B|--55--8-8--55--|
E|---------------|

aca va la letra:

aa AAA, aa AAA

los pajaros buscan a su madre
los pajaros tienen que pelear

los tiempos estan en 'contagiandose...'
Eso es todo, para comentarios, pedidos, puteadas, correcion etc. 
mandenmen un mail a gustavomenin@
Suggest correction
Give kudos to tab author, rate the tab!
1 2 3 4 5
comments
print report bad tab
guest
Wanna post a correction for this tab? Suggest correction