Oops, an error
Loading. Please wait.

Me Harté Tab

19 views 1 this week
no commentswrite comment
1 2 3 4 5
3 more votes to show rating
add to favorites
launch autoscroll
font size
0
reset
how to read this tab
guitar tuner
Autoscroll
slow
fast
+/-
esc
set tempo
stop
Help us to improve Ultimate-Guitar.com Take our survey!
×
intro:'me harte..'
e|--------------|
A|--------------|
D|-55-22-0-77---|
G|-55-22-0-77---|las veces que sean necesarias
B|-33-00-0-55---|
E|--------------|

verso:'en este lugar...'
      DO     SOL   RE    re!   RE    re!  DO
e|-00000000-33333-22222-00000-22222-00000-0-|
A|-11111111-00000-33333-33333-33333-33333-1-|
D|-00000000-00000-22222-22222-22222-22222-0-|
G|-22222222-00000-00000-00000-00000-00000-2-|
B|-33333333-22222-00000-00000-00000-00000-3-|
E|-00000000-33333-00000-00000-00000-00000-0-|
   
aca va el verso con los tiempos:
DO
en este lugar concheto 
SOL               RE-RE!-RE-RE!/DO
me chupo todo tu rencor
DO
distingo entre el reviente
   SOL           RE          
y el resto y el resto

verso2:'dame tu mierda..'
e|--------------|
A|--------------|
D|-55-22-0-77---|
G|-55-22-0-77---|las veces que sean necesarias
B|-33-00-0-55---|
E|--------------|

verso3:'oliendo lo peor...'
      DO     SOL   RE    re!   RE    re!  DO
e|-00000000-33333-22222-00000-22222-00000-0-|
A|-11111111-00000-33333-33333-33333-33333-1-|
D|-00000000-00000-22222-22222-22222-22222-0-|
G|-22222222-00000-00000-00000-00000-00000-2-|
B|-33333333-22222-00000-00000-00000-00000-3-|
E|-00000000-33333-00000-00000-00000-00000-0-|

aca va el verso con los tiempos:
DO
oliendo lo peor posible 
SOL             RE-RE!-RE-RE!/DO
tal eso me deje usar
DO           
y deje que me humilles
SOL          RE-RE!-RE-RE!/DO  
en frente de todos

'y es justo lo que querias...'
     DO       |1|    SOL  |2|    DO             SOL   RE
e|-00000000--3-2-0--33333-3-2-00000000--3-2-0--33333--2-|
A|-11111111---------00000-----11111111---------00000--3-|
D|-00000000---------00000-----00000000---------00000--2-|
G|-22222222---------00000-----22222222---------00000--0-|
B|-33333333---------22222-----33333333---------22222--0-|
E|-00000000---------33333-----00000000---------33333--0-|
aca va el verso con los tiempos:
DO                     |1|
y es justo lo que querias
SOL               |2|
queres trasenderme
DO                |1|
queres trasenderme
SOL            RE
queres trasen-de-e-e-e

'ME AHORQUE..'
e|--------------|
A|--------------|
D|-55-22-0-77---|
G|-55-22-0-77---|las veces que sean necesarias
B|-33-00-0-55---|
E|--------------|

verso:'en este lugar...'
      DO     SOL   RE    re!   RE    re!  DO
e|-00000000-33333-22222-00000-22222-00000-0-|
A|-11111111-00000-33333-33333-33333-33333-1-|
D|-00000000-00000-22222-22222-22222-22222-0-|
G|-22222222-00000-00000-00000-00000-00000-2-|
B|-33333333-22222-00000-00000-00000-00000-3-|
E|-00000000-33333-00000-00000-00000-00000-0-|
   
aca va el verso con los tiempos:
DO
en este lugar concheto 
SOL               RE-RE!-RE-RE!/DO
me chupo todo tu rencor
DO
distingo entre el reviente
   SOL           RE          
y el resto y el resto

'y EL REsto soy yo oh oh au au !...'
e|-----------------------|
A|-----------------------|
D|-5--7--5--7-7-7--5--7--|
G|-5--7--5--7-7-7--5--7--|
B|-3--4--3--4-4-4--3--4--|
E|-----------------------|
(ESTOS ACORDES SON CUANDO GRITA)

PUNTEO:
e|-------------------------------------------------------------------------------
A|-12-12-12-10-8-10-16-16---8-10-12-12-12-12-10-8-10-16-16---8-10-12-12_10-12_10-
D|------------------------9--------------------------------9---------------------
G|-------------------------------------------------------------------------------
B|-------------------------------------------------------------------------------
E|-------------------------------------------------------------------------------
sigue abajo:
e|----------------------------------------------------------16-12-10-12-10-8-
A|-12_10-12_10-12-12-12-10-8-10---8-10-12-12-10/8/10b-16-16------------------
D|------------------------------9--------------------------------------------
G|---------------------------------------------------------------------------
B|---------------------------------------------------------------------------
E|---------------------------------------------------------------------------
sigue abajo:
e|-10-8-5-8-5-3-5---------------------------------
A|-----------------8-10-12-12-10/8/10b--12-10-16--
D|------------------------------------------------
G|------------------------------------------------
B|------------------------------------------------
E|------------------------------------------------

la segunda guitarra acompaña con:
e|--------------|
A|--------------|
D|-55-22-0-77---|
G|-55-22-0-77---|las veces que sean necesarias
B|-33-00-0-55---|
E|--------------|


aclaracion:en la parte que dice 'y es justo lo que querias...' la sEgunda guitarra
puede tocar las notas todo seguido y la primera el 'puNteo' seria esto:
'y es justo lo que querias...'
segunda guitarra
e|-0000000000000000-333333333-0000000000000000-33333--2-|
A|-1111111111111111-000000000-1111111111111111-00000--3-|
D|-0000000000000000-000000000-0000000000000000-00000--2-|
G|-2222222222222222-000000000-2222222222222222-00000--0-|
B|-3333333333333333-222222222-3333333333333333-22222--0-|
E|-0000000000000000-333333333-0000000000000000-33333--0-|
primera guitarra:
e|------------3-2-0-------3-2------------3-2-0---3-2----|
A|------------------------------------------------------|
D|------------------------------------------------------|
G|------------------------------------------------------|
B|------------------------------------------------------|
E|------------------------------------------------------|

|-12_10-|  |10b|  |10/8/10|
  (1)       (2)      (3)
                            (1):|INVENTO|se toca mas rapido (es para difernciar tiempos)
                            (2):(BENDING) TOCAS LA NOTA Y MOVES LA CUERDA
                            (3):tocas la nota y mantenes el dedo y bajas Hasta
                            LA OTRA.

ACA VA LETRA:

me harte
y estoy sonriendote 
y que, nadie quiere oirme

en este lugar concheto 
me chupo todo tu rencor
distingo entre el reviente
y el resto y el resto

dame tu mierda preciosura
dame tu mierda 
yo te dare la mia

oliendo lo peor posible 
tal eso me deje usar
y deje que me humilles
en frente de todos

y es justo lo que querias
queres trasenderme
queres trasenderme
queres trasen-de-e-e-e

me arorque y estoy sonriendome
y que no supiste amarme
y que no supiste amarme
y que no supiste amarme
y que no supiste amarme

en este lugar concheto 
me chupo todo tu rencor
distingo entre el reviente
y el resto y el resto
y el resto soy yo 
oh oh oh au au au!!!!!!!

Eso es todo, para comentarios, pedidos, puteadas, correccion etc. 
mandenmen un mail a gustavomenin@
Suggest correction
Give kudos to tab author, rate the tab!
1 2 3 4 5
comments
print report bad tab
guest
You may want to rate the tab now too:
select rating
Wanna post a correction for this tab? Suggest correction