Oops, an error
Loading. Please wait.

Sádico Tab

1 view 1 this week
no commentswrite comment
1 2 3 4 5
3 more votes to show rating
add to favorites
launch autoscroll
font size
0
reset
how to read this tab
guitar tuner
×
Best way to learn
"Sádico"
Autoscroll
slow
fast
+/-
esc
set tempo
stop
   A5       B5         G5
e------------------------------------------
B------------------------------------------
G-----------------------------------------
D---7--------- 9----------5---------------
A-- 7----------9----------5---------------
E---5----------7----------3----------------

A5 577xxx
B5 799xxx
G5 355xxx


A5  B5

B5             A5 B5
El amor ya fue,
                  A5 G5
cuando desperté,
                     A5 G5
en un nuevo universo,
                    A5 B5
donde no estás vos.


B5          A5  B5
Desaparecé,
            A5  G5
basta de sufrir,
             A5  G5
con tu enfermedad

             A5   B5
sadomasoquista.

B5                 A5         B5                 A5
SADICO, PSICO, (SADICO), PSICO, SADICO, (UJUH!)

B5                 A5         B5                 A5
SADICO, PSICO, (SADICO), PSICO, SADICO, (UJUH!)

B5             A5 B5
Tus celos me van a matar,
                         A5 G5
tus ideas de venganza y poder,
                     A5 G5
rompe la frivolidad
                 A5 B5
antes del amanecer.

B5          A5  B5
Desaparecé,
             A5  G5
basta de sufrir,
                     A5  G5
con tus ataques de egocentrismo
               A5   B5
me siento morir.


B5                 A5         B5                 A5
SADICO, PSICO, (SADICO), PSICO, SADICO, (UJUH!)

B5                 A5         B5                 A5
SADICO, PSICO, (SADICO), PSICO, SADICO, (UJUH!)

Solo de guitarra durante esta parte:


Y voy descubriendo nuevas personas en
este mundo lunático, de plástico.

e-------------------------------------------------
B-15--15--15--15--14--14--14--14--12--12--12--12--
G-------------------------------------------------
D-------------------------------------------------
A-------------------------------------------------
E-------------------------------------------------

e----------------------------------------------------
B-10--10--10--10--8--8--8--8--5--5--5--5------------
G----------------------------------------------------
D----------------------------------------------------
A----------------------------------------------------
E----------------------------------------------------

e-----------------------------------------------
B-3-3-3-3-2-2-2-2-0-0-0-0-----------------------
G-------------------------2-2-2-2--0-0-0-0------
D-----------------------------------------------
A-----------------------------------------------
E-----------------------------------------------


e---------------------------------------------------
B---------------------------------------------------
G---------------------------------------------------
D-4-4-4-4-------------------------------------------
A---------2-2-2-2-0-0--0--0--4--4--4--4--------------
E----------------------------------------------------

A5                    G5       A5
Luces escondidas que no veían almas gemelas en suspenso,
G5   A5
SOL.

B5                 A5         B5                 A5
SADICO, PSICO, (SADICO), PSICO, SADICO, (UJUH!)

B5                 A5         B5                 A5
SADICO, PSICO, (SADICO), PSICO, SADICO, (UJUH!)

(musica)
B5 A5 y se repite "Sadico Psico"
Suggest correction
Give kudos to tab author, rate the tab!
1 2 3 4 5
comments
print report bad tab
guest
You may want to rate the tab now too:
select rating
Wanna post a correction for this tab? Suggest correction