Oops, an error
Loading. Please wait.

Sensación Especial Chords

40 views 1 this week
no commentswrite comment
1 2 3 4 5
3 more votes to show rating
add to favorites
launch autoscroll
font size
0
reset
transpose
0
reset
display chords
guitar tuner
×
Best way to learn
"Sensación Especial"
Autoscroll
slow
fast
+/-
esc
set tempo
stop
 intro
base: c a f g#

e--------13-12------------------------------------
b---------------9---12--14--12-------------13-12-10
g----------------------------------x3-------------  x2
d-------------------------------------------------
a-------------------------------------------------
E-------------------------------------------------

C                  A
la luz d tu mirada me lo dira
F
si te siento tan cercano
G#
eres parte mia

C
corazom reciem llegado
A
no me llores no ahora
F                    G#
estuvimos conectados desde simpre


repite intro x1

C
temgo cosas que enseñarte
A
y otras cosas que explicarte
 F
este invierno frio
G#
estare rompiendo el hielo

C
y sera una sensacion especial
A
lo que esta vida me regalo      x2
F
tu existir y yo no quiero
G#
perdermelo


E        D
sueña y juega hijo mio
A
tu eres de la vida               x2

y de mi mano hasta poder correr


B
dejando todo lo turbio atras...   g----------------9^---------


base como la intro

e------------------------------------------------------------------------
b---------12-------12--12-13-12------12--------12--12-13/17-15-13---x2---
g-----------12-9-12--12-----------------12-9-12--12----------------------
d------------------------------------------------------------------------

C
y sera una sensacion especial
A
lo que esta vida me regalo      x2
F
tu existir y yo no quiero
G#
perdermelo


escuchen el tema para sacar los tiempos viste

 cualquier cosa avisen a  mi meil

apaga la radio y escucha eoy!
Suggest correction
Give kudos to tab author, rate the tab!
1 2 3 4 5
comments
print report bad tab
guest
You may want to rate the tab now too:
select rating
Wanna post a correction for this tab? Suggest correction