Oops, an error
Loading. Please wait.

Tiburón Tab

49 views 1 this week
no commentswrite comment
1 2 3 4 5
3 more votes to show rating
add to favorites
launch autoscroll
font size
0
reset
how to read this tab
guitar tuner
×
Best way to learn
"Tiburón"
Autoscroll
slow
fast
+/-
esc
set tempo
stop
RIFF 1
e-------------
B-------------
G-------------
D-3--2--3--2--
A-3--2--3--2--
E-1--0--1--0--

RIFF 2
e---------------------------
B---------------------------
G---------------------------
D-2-2-2-2--3--2-2-2-2--5-5--
A-2-2-2-2--3--2-2-2-2--5-5--
E-0-0-0-0--1--0-0-0-0--3-3--

BASE
e-------
B-------
G-------
D-------
A-------
E-0--1--

SOLO
e-------------------------------------------------------------------------------------------
B-------------------------------------------------------------------------------------------
G-11----11-12-11-----------11-12-11----11-----------11-12-11----------11-12-11----11--------
D----14----------14-12-14-----------14----14-12--14----------14-12-14----------14----14-12--
A-------------------------------------------------------------------------------------------
E-------------------------------------------------------------------------------------------

e-----------------------------------------------------------------------------------------------------
B-13-12-10-------------------13-12-10--------------------13-12-10-------------------------------------
G----------12-11-9----9-11------------12-11-9----9-11-------------12-11-9-------9-11-11-9-11----9-----
D------------------12-------------------------12------12------------------12-12--------------12---12--
A-----------------------------------------------------------------------------------------------------
E-----------------------------------------------------------------------------------------------------

Aunque en el disco diga lo contrario, esta canción no tiene letra, son solo los gritos de 
María Fernanda como si estuviera siendo devorada por un tiburón. La estructura es la siguiente

RIFF 1 (X2)
RIFF 2 (X4)
RIFF 1 (X2)
BASE (X20 aproximadamente, pero siempre sigue a los gritos)
RIFF 2 (X2)
BASE (X20)
SOLO
RIFF 1 (X2)
RIFF 2 (X4)
BASE (X20)
RIFF 1

Eso es todo, para comentarios, pedidos, puteadas, etc. 
mandenmen un mail a neotokio3@

AGUANTE EL OTRO YO!!!!
LA CUMBIA ES UNA MIERDA!!!!
Suggest correction
Give kudos to tab author, rate the tab!
1 2 3 4 5
comments
print report bad tab
guest
You may want to rate the tab now too:
select rating
Wanna post a correction for this tab? Suggest correction