Oops, an error
Loading. Please wait.

No Es Sólo Tu Culpa Chords

16 views 1 this week
no commentswrite comment
1 2 3 4 5
3 more votes to show rating
add to favorites
launch autoscroll
font size
0
reset
transpose
0
reset
simplify chords
display chords
guitar tuner
×
Best way to learn
"No Es Sólo Tu Culpa"
Autoscroll
slow
fast
+/-
esc
set tempo
stop
NO ES SOLO TU CULPA
esta kancion es de la reputamare
empieza kon un punteo refacil, asi ke ai ta
AH de veras, 
si alguien toka bateria o bajo y le gusta g-3, inyectores
mandeme un mail...

   A5                        F5          G5
|----5---5---5---5---5-5-5-5---5---5---5---7---7---7-|
|--5---5---5---5---5---------6---6---6---8---8---8---|
|----------------------------------------------------|
|----------------------------------------------------| X3
|----------------------------------------------------|
|----------------------------------------------------|

A5 F5 G5-E5 X4 (kon palm mute)
A5 F5 G5 E5 X1 (rekontra rapido)

A5                       F5 G5-E5
dices asi me siento mejor
A5                                   F5 G5-E5
no me importa nada ahora soy superior
A5                                       F5 G5-E5
tu satisfaccion sera tu propia destrucion
A5                                  F5 G5-E5
te burlas de ellas y eres mucho peor

B5        D5   A8
krees ser libre
B5        D5   A5
estas encerrada 
B5           D5   A8
en tu propio juego
B5         D5     A5
entiendelo de una vez

A5                                   F5 G5-E5
kruza la barrera de tu cerrada cabeza
A5                              F5 G5-E5
deja el orgullo y ponte a pensar
A5                                     F5 G5-E5
no pido milagros solo ke abras los ojos
A5                                   F5 G5-E5
para no dañar kon tu maldita libertad

B5        D5   A8
krees ser libre
B5        D5   A5
estas encerrada 
B5           D5   A8
en tu propio juego
B5         D5     A5
entiendelo de una vez

A5 F5 C5 E5-D5

A5                                   F5 C5 E5-D5
krees estar konvencida de lo ke haces
A5 
konvencida
F5
konvencida de ke
C5           E5-D5 
  de tu belleza
A5                    F5
krees ser tan moderna tan irreal
C5        E5-D5 
  tu ganas
A5            F5
tu ganas pero fijate lo ke ganas
C5          E5-D5 
  DEGRADANTE
A5
no es solo tu kumpla 
F5                   C5 E5-D5
fue tu medio ambiente
A5               F5
kizieron hacerte algo diferente
C5           E5-D5 
  y fingieron
A5             F5                C5 E5-D5
ahora elige tu ya te daras kuenta
A5
ke te estas autodestruyendo
F5
autodestruyendo
     C5   E5-D5
reflexiona

A5 F5 C5 E5-D5  X4

A5

A5 F5 G5 E5 X1 (rekontra rapido)

SOLO:
|--5-3-5--5-3-------------3-5-8p555-8p555-8p555-8p555-8b7b5--|
|-------------5---5-3b--5------------------------------------|
|---------------5--------------------------------------------|
|------------------------------------------------------------|
|------------------------------------------------------------|
|------------------------------------------------------------|

NOTA:
   F5  G5  E5 A8
|-----------------|
|-----------------|
|--10--12--9--14--|
|--10--12--9--xx--|
|--8---10--7--12--|
|-----------------|

 NOTA2: ME LLEGAN AL PINCHO ESOS WEBONES DE LOS 'ANARKOPUTAS' K DICEN SER PUNKS
TREMENDOS MARIKONES, HABLAN WEBADAS NO MAS, PUROS CHIBOLOS BABOSOS SON LOS KE
PARAN EN LOS KOLEKTIVOS DE MIERDA, KOMPRANDO TODAS SUS PICHULADAS, 
KREEN KE MIENTRAS MAS PUAS Y PARCHES TENGAN SON MAS 'PUNKS'
Suggest correction
Give kudos to tab author, rate the tab!
1 2 3 4 5
comments
print report bad tab
guest
You may want to rate the tab now too:
select rating
Wanna post a correction for this tab? Suggest correction