Oops, an error
Loading. Please wait.

Pasan Los Días Chords

version 2
version 2

Whole song

23 views 1 this week
no commentswrite comment
1 2 3 4 5
3 more votes to show rating
add to favorites
launch autoscroll
font size
0
reset
transpose
0
reset
simplify chords
display chords
guitar tuner
×
Best way to learn
"Pasan Los Días"
Autoscroll
slow
fast
+/-
esc
set tempo
stop
G5        
G5                    D#5 A#5  
1/5 2/7
G5                    D#5 A#5 
G5 G5   F5  G5 G5 G5      D#5 A#5  
G5                    D#5 A#5
G5 G5   F5  G5 G5 G5      D#5 A#5      (X2) --- más rápido
G5 G5   F5  G5 G5 G5      D#5 A#5      EN HXC
G5 G5   F5  G5 G5 G5      D#5 D5 D#5 E5

G5      D#5 A#5  F5          C5
Pasan los días y siempre es lo mismo, 
G5      D#5    A#5       F5   C5
siguen desperdiciando sus vidas
G5      D#5 A#5    F5 C5
Basándose en vacíos modelos, 
G5     D#5 A#5    F5      C5
se creen contentos pobres ingenuos

G#5 D#5 A#5  C5 G#5 D#5 A#5  C5
Y Pasan los días y no eres nada
G#5 D#5 A#5  C5  G#5  A#5   C5
no tienes amigos, no tienes nada

G5     D#5    A#5             F5  C5
Siempre es lo mismo mirando al vacío,  
G5     D#5 A#5              F5    C5
viviendo en un mundo que no es el real
G5     D#5   A#5             F5     C5
guardando apariencias frente a los demás,
G5     D#5 A#5                F5     C5
compras tus amigos , rodeado te sientes mas..

G#5 D#5 A#5  C5 G#5 D#5 A#5  C5
Y Pasan los días y no eres nada
G#5 D#5 A#5  C5  G#5  A#5   C5
no tienes amigos, no tienes nada

G#5 A#5   C5   G#5 A#5       C5
Y ahora espero que busques seguridad, 
G#5      A#5     C5       G#5 A#5       C5
siendo seguro de ti mismo y no en los demás
G#5 A#5     C5   G#5 A#5       C5
y es que confías en tu fuerza material, 
G#5   A#5        C5   
algún día se te acabara , 
G#5 A#5     C5   G#5 A#5       C5
y   gordo, viejo y sin pelo estarás

E----------------------------------------------------------------
B-----------------------------------8-8-8/9/8-6------------------
G-----7-5--7-5---8---8-8/10/8--7-5--------------8-7-5-------8-6--
D-5-5-----5-------------------------------------------8-5-6------
A----------------------------------------------------------------
E----------------------------------------------------------------


E----------------------------------------------------------------
B----------------8---8---8---8--8---8--8--13--13-13-12-13--------
G---8-8/10/8-7-5------5-5-5-5-5--5-5--5--------------------------
D----------------------------------------------------------------
A----------------------------------------------------------------
E----------------------------------------------------------------

E-------11-----11------11-----11------13b-13b-13b-13b------------
B-13-13---13-13--13-13---13-13--13-13----------------------------
G----------------------------------------------------------------
D----------------------------------------------------------------
A----------------------------------------------------------------
E----------------------------------------------------------------

G#5   A#5        C5  (X2)

4/12  4/13  4/12  4/10

G#5 D#5 A#5  C5 G#5 D#5 A#5  C5
Y Pasan los días y no eres nada
G#5 D#5 A#5  C5  G#5  A#5   C5
no tienes amigos, no tienes nada (x4)


LA MEJOR BANDA DEL MUNDO!


Krozby
Suggest correction
Give kudos to tab author, rate the tab!
1 2 3 4 5
comments
print report bad tab
guest
You may want to rate the tab now too:
select rating
Wanna post a correction for this tab? Suggest correction