Oops, an error
Loading. Please wait.

Dos Seres Hay En Mí Tab

384 views 6 this week
no commentswrite comment
1 2 3 4 5
3 more votes to show rating
add to favorites
launch autoscroll
font size
0
reset
how to read this tab
guitar tuner
Autoscroll
slow
fast
+/-
esc
set tempo
stop
SOLO : lleva la misma secuencia de acordes al coro

E--------------------------------------------
B---------8v--7s5-------10-8s7-5-7v----------
G-----7h9---------9s7-7----------------------
D-7h9----------------------------------------
A--------------------------------------------
E--------------------------------------------

E-------------------------------------------10-7-----------
B-7-7-8-10-10--8-8-7-7h8h7------10-8s7---7-------10-7------
G--------------------------9-----------9--------------9-7v-
D----------------------------7-----------------------------
A----------------------------------------------------------
E----------------------------------------------------------

E-13s14-14-15-17-17-17s19-19v--17-15-14-15-15-14-12-14-12s14v--------
B-------------------------------------------------------------17-15v-
G--------------------------------------------------------------------
D--------------------------------------------------------------------
A--------------------------------------------------------------------
E--------------------------------------------------------------------

E----------17-17----------17----------17------------------------
B----15-------------15----------15----------15----17----15----17
G-14----14-------14----14----14----14----14----14----14----14---
D---------------------------------------------------------------
A---------------------------------------------------------------
E---------------------------------------------------------------

E----------17---------------------------------------------------
B----15----------15----17-----17s19-17-15-15v-------------------
G-14----14----14----14-----14------------------16-14-16-14------
D----------------------------------------------------------14-12
A---------------------------------------------------------------
E---------------------------------------------------------------

 si la escuchan les saldra mejor
cualquier pregunta a 
Suggest correction
Give kudos to tab author, rate the tab!
1 2 3 4 5
comments
print report bad tab
guest
Wanna post a correction for this tab? Suggest correction