Oops, an error
Loading. Please wait.

Un Fogonazo Chords

7 views 1 this week
no commentswrite comment
1 2 3 4 5
3 more votes to show rating
add to favorites
launch autoscroll
font size
0
reset
transpose
0
reset
display chords
guitar tuner
Autoscroll
slow
fast
+/-
esc
set tempo
stop
Help us to improve Ultimate-Guitar.com Take our survey!
×
  
   G
 e--3-----------------------------------------------------------------
 B--3---3-1--0h1p0-----------------------3--1--0h1p0------------------
 G--0--------------2--0-2-0-2------------0------------2--0------------
 D--0-------------------------2-2-2-2---------------------------------
 A--2-----------------------------------------------------------------
 E--3------------------------------------------------------0-0-2-2-3--
                              PM....PM                     PM...PM

  
 e----------------------------------------------------------------
 B--3-1--0h1p0-----------------------3--1--0h1p0------------------
 G--0-----------2--0-2-0-2-----------0------------2--0------------
 D------------------------2-2-2-2---------------------------------
 A----------------------------------------------------------------
 E-----------------------------------------------------0-0-2-2-3--
                          PM....PM                     PM...PM

  
   G
   Muy joven para entender,
   Em                           C                     G
   yo no quería encontrar tu corazón; pero tú estabas libre.

   G               Em                              C
   Decidiste escapar, Mamá Lola esperaba en su jardín,
                  Am                                 G
   le preguntamos: "¿Qué ves?" y ella leyó nuestras manos:
        D                C                         G
   "Un fogonazo de luz, un desgarro interior, una lágrima". 
   (repetir, ritmo distinto 2a vez)

  
 e-----------------------------------------------------------------
 B-----3-1--0h1p0-----------------------3--1--0h1p0----------------
 G----------------2--0-2-0-2------------------------2-0------------
 D---------------------------2-2-2-2-------------------------------
 A-----------------------------------------------------------------
 E------------------------------------------------------0-0-2-2-3--
                             PM....PM                   PM...PM


   G                  Em                                   C
   Llegamos a Castellón tentando siempre a nuestra oportunidad.
                  G     G                  Em
   Barcelona era un sueño: mi guitarra, mi voz, diez billetes por noche,                
              C              Am                  G
   una canción,  la brisa del mar, tu boca en mi boca...

       D                  C                      G 
   "Un fogonazo de luz, un desgarro interior, una lágrima". (repetir)

 e-----------------------------------------------------------------
 B-----3-1--0h1p0-----------------------3--1--0h1p0----------------
 G----------------2--0-2-0-2------------------------2-0------------
 D---------------------------2-2-2-2-------------------------------
 A-----------------------------------------------------------------
 E------------------------------------------------------0-0-2-2-3--
                             PM....PM                   PM...PM

   G                   Em                                 C              G
   Encontraste otra llama que abrasó con más fuerza y más calor tu carne de seda.
   G                   Em                   C                    Am
   Y mientras yo recurrí a curar el veneno del amor tú olvidaste el amor
                  G
   y tragaste veneno.

      D                    C                      G
   "Un fogonazo de luz, un desgarro interior, una lágrima". (repetir)

 e-----------------------------------------------------------------
 B-----3-1--0h1p0-----------------------3--1--0h1p0----------------
 G----------------2--0-2-0-2------------------------2-0------------
 D---------------------------2-2-2-2-------------------------------
 A-----------------------------------------------------------------
 E------------------------------------------------------0-0-2-2-3--
                             PM....PM                   PM...PM

    G                    Em                                 C
    Regresé a aquel jardín: quince años después y encontré allí
                     G  *SOL                 Em
    a Mamá Lola esperando. Yo le pregunté por ti. Sacó un naipe del mazo
           C             Am             G
    y sólo vio que tu corazón había quebrado.

    G           D                    C                    G
    Sólo vio un fogonazo de luz, tu desgarro interior y mis lágrimas.


    * a partir de aquí sólo se escucha los acordes de guitarra acústica, 
      que sustituyen al ritmo que principalmente es llevado por la eléctrica, 
      con arreglos de española por enmedio.
Suggest correction
Give kudos to tab author, rate the tab!
1 2 3 4 5
comments
print report bad tab
guest
You may want to rate the tab now too:
select rating
Wanna post a correction for this tab? Suggest correction