Oops, an error
Loading. Please wait.

Ahí Estás Otra Vez Tab

11 views 1 this week
no commentswrite comment
1 2 3 4 5
3 more votes to show rating
add to favorites
launch autoscroll
font size
0
reset
how to read this tab
guitar tuner
Autoscroll
slow
fast
+/-
esc
set tempo
stop
Help us to improve Ultimate-Guitar.com Take our survey!
×
ESTE ES EL INTRO DE LA GUITARRA DESPUES DE LA VOZ

INTRO (ESTE SE DA DANDO RE MENOR ALA VES)
e |--------------------------------------------||
B |--------------------------------------------||
G |--------------------------------------------||
D |------------------5-6-----------------------||
A |------5-5--5--5-7-----7-5-5--5------------5-||
E |--------------------------------7-5-7-5-7---||

Y SE REPITE
ES IGUAL EN LAS ESTROFAS LO UNICO QUE CAMBI ES LO
SIGUIENTE

e |-------------------------------------------||
B |-------------------------------------------||
G |-------------------------------------------||
D |------------------5-6----------------------||
A |------5-5--5--5-7-----7--------------3-----||
E |-------------------------3-3--3--3-5---5-3-||
Suggest correction
Give kudos to tab author, rate the tab!
1 2 3 4 5
comments
print report bad tab
guest
You may want to rate the tab now too:
select rating
Wanna post a correction for this tab? Suggest correction