Oops, an error
Loading. Please wait.

Cuándo Llegará El Final? Bass Tab

8 views 1 this week
no commentswrite comment
1 2 3 4 5
3 more votes to show rating
add to favorites
launch autoscroll
font size
0
reset
guitar tuner
Autoscroll
slow
fast
+/-
esc
set tempo
stop
Help us to improve Ultimate-Guitar.com Take our survey!
×
INTRO

G------------------------------------
D------------------------------------ x4
A---------5-6-7-------------5-3------
E--5-3-5---------5-3-5--5-5-----5----

1ER VERSO
Todo pierde control...
Todo pierde control...
G-------
D-------
A-------
E--5----

Pero como encontrar...
Pero como encontrar...

G------------------------------------------
D------------------------------------------
A-----------5-5-3-5-3-----------5-5-3-5-3--
E--5-5-3-5-------------5-5-3-5-------------

G-------------------------------
D-------------------------------
A-----------5-5-3-5-3----3-5----
E--5-5-3-5-------------5--------

CORO
Todos se preguntan...

G--------------------------
D--------------------------
A------3-5-3-5--3-5-7-7----
E--5-5---------------------

G--------------------------
D--------------------------
A------3-5-3-5--7-5-3-3----
E--5-5---------------------

TODO ESO DOS VECES
SE REPITE TODO DESDE EL PRINCIPIO

PUENTE
Donde esta...

G----------------------------
D----------------------------
A----3-------------3-7-19----
E--5---5--0-0-3-5------------

SOLO

G----------------------------------------
D----------------------------------------
A--5-3-5-3-5-3-5-3-5-3-5-3--------3------
E---------------------------5-3-5---5-3--

G--------------------------------------
D-------------------------------5-7-7--
A--------3------5-3-5-3-5-3-5-3--------
E--5-3-5---5-3-------------------------

INTRO DOS VECES
CORO
SE TERMINA CON EL INTRO
Suggest correction
Give kudos to tab author, rate the tab!
1 2 3 4 5
comments
print report bad tab
guest
You may want to rate the tab now too:
select rating
Wanna post a correction for this tab? Suggest correction