Oops, an error
Loading. Please wait.

Niña Rasta Bass Tab

31 views 1 this week
no commentswrite comment
1 2 3 4 5
3 more votes to show rating
add to favorites
launch autoscroll
font size
0
reset
guitar tuner
Autoscroll
slow
fast
+/-
esc
set tempo
stop
Help us to improve Ultimate-Guitar.com Take our survey!
×
Aqui les dejo esta cancion, espero que les sea de ayuda mi version....

G:------------------------------|
D:------------------------------|
A:------------------------------|
E:-6~--6-7-8~--8-9-10~--10\8-8~-|

 Verso
G:--------------------------------------------------|
D:-----------------------12-12----------------------|
A:--------------------12-------12-------8/10-8------|
E:-6--6\--8-8-8-8-10--------------10-8~--------10-8-|

1:19
G:--------------------------------------------------|
D:-----------------------12-12----------------------|
A:--------------------12-------12-------8/10-8------|
E:-6--6\--8-8-8-8-10--------------10-8~--------10-6-|

G:--------------------------------------------------|
D:-----------------------12-12----------------------|
A:--------------------12-------12-------8/10-8------|
E:-6--6\--8-8-8-8-10--------------10-8~--------10-8-|

Parte mas rapida
Y muevelo para alla...
G:------------------------------------------|
D:---------------------------------8--------|
A:-------------------------------8---10-8-8-|
E:-6--6-6--8--8-8--10--10-10--8-------------|

G:------------------------------------------|
D:------------------------------------------|
A:------------------------------------------|
E:-6--6-6--8--8-8--10--10-10--8--8-8--6-----|

y longo...
G:--------------------------------------------------|
D:-----------------------12-12----------------------|
A:--------------------12-------12-------8/10-8------|
E:-6--6\--8-8-8-8-10--------------10-8~--------10-8-|

G:------------------------------------------------|
D:-----------------------12-12--------------------|
A:--------------------12-------12-------8/10-8----|
E:-6--6\--8-8-8-8-10--------------10-8~--------10-|

Y muevelo para alla...
G:-----------------------------------------|
D:-------------------------------8/10-8----|
A:--------------------------------------10-|
E:-6--6-6--8--8-8--10--10-10--8------------|


G:------------------------------------------|
D:------------------------------------------|
A:------------------------------------------|
E:-6--6-6--8--8-8--10--10-10--8--8-8--6-----|
Suggest correction
Give kudos to tab author, rate the tab!
1 2 3 4 5
comments
print report bad tab
guest
You may want to rate the tab now too:
select rating
Wanna post a correction for this tab? Suggest correction