Oops, an error
Loading. Please wait.

América Del Sur Bass Tab

29 views 1 this week
no commentswrite comment
1 2 3 4 5
3 more votes to show rating
add to favorites
launch autoscroll
font size
0
reset
guitar tuner
×
Best way to learn
"América Del Sur"
Autoscroll
slow
fast
+/-
esc
set tempo
stop
empieza asi :

me inmagino un tren... cambiando la cabeza..

       G              A             C         D
--------------------------------------------
--------------------------------------------
-----------------------------------3-3-3-3--5-5-5-5
-3-3-3-3-3-3-3-3--5-5-5-5-5-5-5-5-------------------

por vivir

 G
-------------------------
-------------------------
---------------2-----X2--
-3-3---3-3-0-3-----------


  G                                A
mendoza tierra luz...            a tu montaña fui tambien
--------------------|-----     --------------------|--
--------------------|-----     --------------------|--
---------------2----|-X2--     --------------------|--  X2
-3-3---3-3-0-3------|-----     -5-5--5-5--7--5--0--|--

 C                                   D
piso diesiseis                  hoy miro a buenos aires
--------------------          -------------------------
---------------2----          -------------------------
-3-3---3-3-0-3------          ------5----2-3-5--------
--------------------          -------------------------

         G
 desde alli
-------------------------
-------------------------
---------------2-----X2--
-3-3---3-3-0-3-----------


Asi son todas las estrofas.


En el estribillo hace:


     G              A
A me ri ca  del     sur              A me         rii  ca
---------------------------------------------------------
---------------------------------------------------------
-------------------------------------3-3-3-3------5--2-3-5
-3-3-3-3-3-3-3-3---5-5-5-5-5-5-5-5-----------------------

   G
Del sur.
----------------------
----------------------
----------------------
-5-5-5-5-5-5-5-5-------


Eso es todo, repite en todo el tema.
Nos vemos.
Suggest correction
Give kudos to tab author, rate the tab!
1 2 3 4 5
comments
print report bad tab
guest
You may want to rate the tab now too:
select rating
Wanna post a correction for this tab? Suggest correction