Oops, an error
Loading. Please wait.

Caras De Limón Bass Tab

version 1
version 1

Whole song

19 views 1 this week
no commentswrite comment
1 2 3 4 5
3 more votes to show rating
add to favorites
launch autoscroll
font size
0
reset
guitar tuner
×
Best way to learn
"Caras De Limón"
Autoscroll
slow
fast
+/-
esc
set tempo
stop
Todo el tema esta en A , D y E


intro :


Empieza la viola sola y dsps arranca el bajo con esto:

G---------|---------|---------------|---------|
D---------|---------|------4-7-4----|---4-7---|
A---4-7---|---4-7---|--4-7-------7-4|-5-----5-|
E-5-----5-|-5-----5-|-5-------------|---------|

G---------|-------4-7-4---|---------|---------|
D---4-7---|---4-7------7-4|---6-9---|---4-7---|
A-5-----5-|-5-------------|-7-----7-|-5-----5-|
E---------|---------------|---------|---------|

G----------------|----------|----------|------|
D----------------|----------|----------|------|
A--4-5-6-7-5/6/7-|----------|----------|------|
E-5--------------|----------|----------|------|

No hay ninguna nena , no hay ninguna nena ....

G---------|---------|---------------|---------|
D---------|---------|------4-7-4----|---4-7---|
A---4-7---|---4-7---|--4-7-------7-4|-5-----5-|
E-5-----5-|-5-----5-|-5-------------|---------|

G---------|-------4-7-4---|---------|---------|
D---4-7---|---4-7------7-4|---6-9---|---4-7---|
A-5-----5-|-5-------------|-7-----7-|-5-----5-|
E---------|---------------|---------|---------|

G----------------|----------|----------|------|
D----------------|----------|----------|------|
A--4-5-6-7-5/6/7-|----------|----------|------|
E-5--------------|----------|----------|------|    todo x2


y es todo el tema asi , el estribillo , el solo , la estrofa lo
hace con la misma base . Es la base comun del rocanrol.


nos estamos viendo
y aguante los gardeles
Suggest correction
Give kudos to tab author, rate the tab!
1 2 3 4 5
comments
print report bad tab
guest
You may want to rate the tab now too:
select rating
Wanna post a correction for this tab? Suggest correction