Oops, an error
Loading. Please wait.

Caras De Limón Bass

version 2
version 2

Whole song

17 views 1 this week
no commentswrite comment
1 2 3 4 5
3 more votes to show rating
add to favorites
launch autoscroll
font size
0
reset
guitar tuner
×
Best way to learn
"Caras De Limón"
Autoscroll
slow
fast
+/-
esc
set tempo
stop
Todo el tema esta en A , D y E...una base d rnr cuadrado


intro :

Empieza la viola sola y el bajo va entrando d apoco

G|-------------------------------------|
D|-------------------------------------|
A|------7-5-4-----------7-7-5-4--------|
E|-/5---------5---0-3-5---------7------|


G|---------------------------------------------------------|
D|---------------------------------------------------------|
A|---4-7-4---4-7-4---7-4-7-------------9-12-9----9-12-9----|
E|-5-------5-------5-------5-7-8-9--10--------10-----------|

G|-------------------------------------------------------|
D|-------4-7-7-4--------6-9-6----7-5-4-------------------|
A|---4-7---------7-4--7--------5----------4-5-6-7-5-6-7--|
E|-5------------------------------------5----------------|


y asi hasta el final dl tema, ya q esta es una correccion
d lo q habia andtes, dejo algo q puso el q subio el tema
y tiene razon :p:


nos estamos viendo
y aguante los gardeles
Suggest correction
Give kudos to tab author, rate the tab!
1 2 3 4 5
comments
print report bad tab
guest
You may want to rate the tab now too:
select rating
Wanna post a correction for this tab? Suggest correction