Oops, an error
Loading. Please wait.

Caras De Limón Tab

32 views 1 this week
no commentswrite comment
1 2 3 4 5
3 more votes to show rating
add to favorites
launch autoscroll
font size
0
reset
how to read this tab
guitar tuner
Autoscroll
slow
fast
+/-
esc
set tempo
stop
Help us to improve Ultimate-Guitar.com Take our survey!
×
  Primer Solo

e|-----12-----12-----12-----12-----12-----12-----12------------
B|-12b----12b----12b----12b----12b----12b----12b----12ba-10----
G|----------------------------------------------------------11-
D|-------------------------------------------------------------
A|-------------------------------------------------------------
E|-------------------------------------------------------------

e|-------------------------------------------------------------
B|-10-10-------10--------10--------10--------10--------10------
G|---------s11----11-s11----11-s11----11-s11----11-s11----11---
D|-------------------------------------------------------------
A|-------------------------------------------------------------
E|-------------------------------------------------------------

e|--------------------------------------------
B|-------10------10------10---------10--------
G|-10s11------11------11-----11--------11-----
D|-------------------------------9---------7--
A|--------------------------------------------
E|--------------------------------------------


e|-----7--7-------5--5---4--4--4---2--2--2-------------5------------
B|-s9-----9---s7-----7---5--5--5---3--3--3---5-5--------------------
G|-------------------------------------------5-5b-5-7b---7ba-5------
D|-------------------------------------------------------------7-5--
A|-----------------------------------------------------------------7
E|------------------------------------------------------------------

e|-s5--5-5-------5---5-5-------5---5-5-------5-------5--
B|-s5--5-5-------5---5-5-------5---5-5-------5-------5--
G|---------7-5-6---------7-5-6---------7-5-6---7-6-5----
D|------------------------------------------------------
A|------------------------------------------------------
E|------------------------------------------------------

e|------5------5------5------5------5------5------5---5--------
B|----5------5------5------5------5------5------5-----5--------
G|-7b-----7b-----7b-----7b-----7b-----7b-----7b----7b---7ba-5--
D|------------------------------------------------------------7
A|-------------------------------------------------------------
E|-------------------------------------------------------------

e|-s4-4-4--s2-2-2---0-0-0---------------------------------
B|-s5-5-5--s3-3-3--s2-2-2---5--5------------5--5---5------
G|--------------------------6--5------------5b-5b--5ba----
D|--------------------------------7-7---5-7-------------7-
A|--------------------------------------------------------
E|--------------------------------------------------------


  Segundo solo

e|-4s5-5-5-5-5-5--4s5-5-5-5-5- 4s5-5-5-5-5--4s5-5-5-5-5-5-
B|-4s5-5-5-5-5-5--4s5-5-5-5-5--4s5-5-5-5-5--4s5-5-5-5-5-5-
G|--------------------------------------------------------
D|--------------------------------------------------------
A|--------------------------------------------------------
E|--------------------------------------------------------

e|--------5-5--------------------------------------------------
B|--------5-5--17v-----17v-----17v-----17v-----17v-----17v-----
G|-7-5-6-----------17v-----17v-----17v-----17v-----17v-----17v-
D|-------------------------------------------------------------
A|-------------------------------------------------------------
E|-------------------------------------------------------------

e|---------------------------------------------------------
B|-17v--20-20--------------8---8---8----8---8---8--7-5---5-
G|------21-21----17v----s9---9---9----9---9---9----7-5---5-
D|-----------------------------------------------------7---
A|---------------------------------------------------------
E|---------------------------------------------------------

e|--------5---------------
B|------------------------
G|---5-7b---7ba-5---------
D|-7---------------7-5----
A|---------------------7--
E|------------------------

e|-s5--5-5-------5---5-5-------5---5-5-------5-------5--
B|-s5--5-5-------5---5-5-------5---5-5-------5-------5--
G|---------7-5-6---------7-5-6---------7-5-6---7-6-5----
D|------------------------------------------------------
A|------------------------------------------------------
E|------------------------------------------------------

e|------5------5------5------5------5------5------5---5--------
B|----5------5------5------5------5------5------5-----5--------
G|-7b-----7b-----7b-----7b-----7b-----7b-----7b----7b---7ba-5--
D|------------------------------------------------------------7
A|-------------------------------------------------------------
E|-------------------------------------------------------------
Suggest correction
Give kudos to tab author, rate the tab!
1 2 3 4 5
comments
print report bad tab
guest
You may want to rate the tab now too:
select rating
Wanna post a correction for this tab? Suggest correction