Oops, an error
Loading. Please wait.

Corazón Bailando Al Viento Tab

version 1
version 1

Whole song

14 views 1 this week
no commentswrite comment
1 2 3 4 5
3 more votes to show rating
add to favorites
launch autoscroll
font size
0
reset
how to read this tab
guitar tuner
×
Best way to learn
"Corazón Bailando Al Viento"
Autoscroll
slow
fast
+/-
esc
set tempo
stop

Intro (Cm-G#-A#-Fm-A#-Fm)x2

    Cm      G#      A#     Fm     A#   Fm
1|--3-------4-------6------8------6-----8---|
2|--4-------4-------6------8------6-----8---|
3|--5-------5-------7------8------7-----8---|
4|--5-------6-------8------10-----8-----10--|
5|--3-------6-------8------10-----8-----10--|
6|------------------------------------------|

Despues este punteo....

1|---------------------------------------|x4
2|---------------------------------------|
3|---------------------------------------|
4|--------1------------------------------|
5|--3-1-3-----------------1-3-1-3--------|
6|----------4-3-4-3--1--3----------------|

Cm            G#      A#                Fm   
Tengo un corazon que esta bailando al viento
Cm            G#      A#                Fm   
Tengo una ilusion que quiero amar despierto
Cm            G#      A#      Fm  
No puedo parar este sentimiento
Cm            G#      A#       Fm  
voy a demostrar todo lo que siento


A                     G
Quiero bailar sin parar 
A                     G
Quiero bailar y transpirar
F#      G      A   Bb
Volar, volar, volar!!!


Solo Guitarra (Cm-G#-A#-Fm-A#-Fm) x6

intermedio...

1|------------------------------|
2|------------------------------|
3|------------------------------|
4|------------------------------|
5|------------------------------|
6|-4-3-4-3-4-3-4-3---3h4h3h4h3--|....Engancha con el verso


Cm            G#      A#                Fm   
Tengo un corazon que esta bailando al viento
Cm            G#      A#                Fm   
Tengo una ilusion que quiero amar despierto
Cm            G#      A#       Fm   
No puedo parar este sentimiento
Cm            G#      A#        Fm   
voy a demostrar todo lo que siento


A                     G
Quiero bailar sin parar 
A                     G
Quiero bailar y transpirar
F#      G      A   Bb
Volar, volar, volar!!!


Solo Guitarra (Cm-G#-A#-Fm-A#-Fm) x6

intermedio...

1|---------------------|
2|---------------------|
3|---------------------|
4|---------------------|
5|---------------------|
6|-4-3-4-3-4-3-4-3-----|


Cm-G#-A#-Fm-A#-Fm x2

1|---------------------------------------|x4
2|---------------------------------------|
3|---------------------------------------|
4|--------1------------------------------|
5|--3-1-3-----------------1-3-1-3--------|
6|----------4-3-4-3--1--3----------------|

1|---5/8--|
2|--------|
3|--------|  
4|--------|
5|--------|
6|--------|

Fin...


Temazo de Los Gardelitos espero que les sirva!! Saludos a todos mis amigos de Rio Grande
Tierra del Fuego desde Rosario!! Si tenes alguna correccion mandala a mi mail.....
Saludos para Rodrigo.T, Gaston.E(la Plata)Karina.C,Nico.R,Emma.E,Franco.T,Laura.A.
Gardelitos por favor Vuelvan a Rosario!!

Fin.....
Suggest correction
Give kudos to tab author, rate the tab!
1 2 3 4 5
comments
print report bad tab
guest
You may want to rate the tab now too:
select rating
Wanna post a correction for this tab? Suggest correction