Oops, an error
Loading. Please wait.

Corazón Bailando Al Viento Tab

version 2
version 2

Whole song

22 views 3 this week
no commentswrite comment
1 2 3 4 5
3 more votes to show rating
add to favorites
launch autoscroll
font size
0
reset
how to read this tab
guitar tuner
×
Best way to learn
"Corazón Bailando Al Viento"
Autoscroll
slow
fast
+/-
esc
set tempo
stop
Hola a todos aca les dejo Corazón completito, un gran tema. Disfrútenlo
Cualquier duda o consulta, e23g11t89@
Edgar


Intro: Cm G# A# Cm X2

e|-----------------------------------|
B|-----------------------------------|
G|-----------------------------------|X4
D|-------1---------------------------|
A|-3-1-3-----------------1-1-3-1-3-1-|
E|---------4-4-3-4-3-1-1-------------|


Cm              G#
Tengo un corazón
       A#                 Cm
Que esta bailando al viento
Tengo una ilusion
Te quiero amar despierto

No puedo parar
Este sentimiento
Voy a demostrar
Todo lo que siento
    Riff 1           Riff 2
e|-----------|---------------------|
B|-----------|---------------------|
G|-----------|---------------------|
D|-----------|---------------------|
A|-----3-----|-----3-----2--5-5/10-|
E|-4-6---4-6-|-4-6---4-3-----------|

A#                   G#    Riff 1 (saxo)
Quiero bailar sin parar
A#                       G#       Riff 2 (saxo)
Quiero bailar y transpirar volar, volar, volar,!!!

Solo 1:

e|-----------------8---------------------------------------------------|
B|----------------8--11e-11-8------------------13---13---13---13---13--|
G|-10e-10br-8-10-------------10-8-10br-8---------15e--15e--15e--15e----|
D|---------------------------------------10~---------------------------|
A|---------------------------------------------------------------------|
E|---------------------------------------------------------------------|

e|----------------------------------------------------------------------|
B|-15e-13-----------------------------------------13--------------------|
G|-------13--13-12-10-12-13-12-10-12-13-12-10-12----15br-15-13-12-13-12-|
D|----------------------------------------------------------------------|
A|----------------------------------------------------------------------|
E|----------------------------------------------------------------------|

e|------------------------------------------------------------------------
B|------------------------------------------------------------------------
G|------------------------------------------------------------------------
D|15-13-15br-13-15~--15e-15-13----13-15...-15br-13---------13-15e-15-13-15
A|----------------------------15------------------15--13h15---------------
E|------------------------------------------------------------------------

e|----------------------------------------------------------------|
B|------------------------------------------8---8---8-------------|
G|------------------------------------------10e-10e-10e-10-8-10-8-|
D|-------15eº-------13--------------------------------------------|
A|-13h15------13h15----15-13-15-15~-15~-15/-----------------------|
E|----------------------------------------------------------------|

                                                          Muchas veces
                                                          _____|_____
                                                          |          |
e|----------------------------------------------------------------------|
B|------------------8---8---8--------------------------------13---13----|
G|------------------10e-10e-10e-10-8-10-8-----------------15e--15e------|
D|----------------------------------------------------------------------|
A|----------------------------------------------------------------------|
E|-4-3-4-3-4-3-4-3------------------------4-3-4-3-4-3-4-3---------------|
e|---------------------------------------------------------------|
B|------16-18e----16-18br-16-18~-18e-18e-18-16----16-------------|
G|-15/17-------17------------------------------17----17br-15-17--|
D|---------------------------------------------------------------|
A|---------------------------------------------------------------|
E|---------------------------------------------------------------|

e|---------------------------------------------|----8---------------------
B|---------------------------------------------|-----11-8-----------------
G|-17e-17-15-17-17e-17----17e-17e-17e-15-17-17/|-10e-----10-8---8-10e-8-10
D|---------------------17----------------------|--------------10----------
A|---------------------------------------------|--------------------------
E|---------------------------------------------|--------------------------

e|------------------------------------------------------------------------
B|-8-9/11-9-8--8-------------------------------8--------------------------
G|-----------10-10-8-7-8-7-----------------------10-10e-10-8-10-8-10br-8--
D|-------------------------10-8-10-8---10--8h10-------------------------10
A|-----------------------------------10-----------------------------------
E|------------------------------------------------------------------------
                                             Muchas veces
e|---------------------------------------|--|---------|
B|-8---8---8-----------------------------|--|---------|
G|-10e-10e-10e-10-8-10-8-----------------|X2|---------|
D|---------------------------------------|--|---------|
A|---------------------------------------|--|---------|
E|-----------------------4-3-4-3-4-3-4-3-|--|-3h4p3h4-|

Tengo un corazón
Que esta bailando al viento
Tengo una ilusion
Te quiero amar despierto

No puedo parar
Este sentimiento
Voy a demostrar
Todo lo que siento

Quiero bailar sin parar
Quiero bailar y transpirar volar, volar, volar,!!!

Solo 2:

e|----------------8------------------------------------------------------|
B|---------------8--11--------------13-----------------------------------|
G|10e-10br-8-10--------10-8-10br-8----15br-15-13-12-13-12----------------|
D|-------------------------------------------------------15-13-15br-13-15|
A|-----------------------------------------------------------------------|
E|-----------------------------------------------------------------------|
                           Muchas veces   Muchas veces
                           _____|____     _____|_____
                          |          |   |           |
e|---------------------------------------------------------|
B|---------------------------------------------------------|
G|----------------------------8-----8----10br-8-10br-8-----|
D|-1515151515e-15br-13----8h10--8h10--------------------10-|
A|--------------------15-----------------------------------|
E|---------------------------------------------------------|
                                             Muchas veces
                                              _____|_____
                                             |           |
e|---------------------------------------|--|-------------|----|
B|-8---8---8-----------------------------|--|----13---13--|----|
G|-10e-10e-10e-10-8-10-8-----------------|X2|-15e--15e----|-15-|
D|---------------------------------------|--|-------------|----|
A|---------------------------------------|--|-------------|----|
E|-----------------------4-3-4-3-4-3-4-3-|--|-------------|----|

Cm G# A# Cm X4

e|-----------------------------------|--|-----|
B|-----------------------------------|--|-13--|
G|-----------------------------------|X4|-15e-|
D|-------1---------------------------|--|-----|
A|-3-1-3-----------------1-1-3-1-3-1-|--|-----|
E|---------4-4-3-4-3-1-1-------------|--|-----|

Fin

Bueno espero q les sirva, muchos me lo han pedido. Aca lo tienen
Lo unico q me falto son las risas del korne en el solo, jaja

Yo se q El vive en nuestro corazones Gardelianos!!!
Suggest correction
Give kudos to tab author, rate the tab!
1 2 3 4 5
comments
print report bad tab
guest
You may want to rate the tab now too:
select rating
Wanna post a correction for this tab? Suggest correction