Oops, an error
Loading. Please wait.

Corazón Bailando Al Viento Tab

version 3
version 3

Whole song

39 views 1 this week
no commentswrite comment
1 2 3 4 5
3 more votes to show rating
add to favorites
×
Save as Personal and add changes to this tab that will be seen only by you. Learn more ›
×
You can save this tab as Personal to edit and correct it or add notes. All changes will be seen only by you. Learn more »
save as personal
new!
launch autoscroll
font size
0
reset
how to read this tab
guitar tuner
Autoscroll
slow
fast
+/-
esc
set tempo
stop
Intro: Cm G# Bb Cm

E|---------------------------------|
B|---------------------------------|
G|---------------------------------|
D|---------------------------------|
A|-3--3---------------------3-3----|
E|--6--6-4-4-3-4-3-1-1-1-4-6-6-6---|


Cm            G#
Tengo un corazón
       Bb              Cm
Que esta bailando al viento.
Tengo una ilusión
Te quiero amar despierto
No puedo parar este sentimiento
Voy a demostrar todo lo que siento.

Bb                    G#
 Quiero bailar sin parar
Bb                      G#
 Quiero bailar y transpirar
G
 Volar, volar, volar...

Solo de guitarra

E|-----------------------------------------------------|
B|-----------------------------------------------------|
G|---------------------9-11(13)11--11-9----------------|
D|-10(12)10(12)8-10-10------------------10-8-10-8---8--|
A|------------------------------------------------10---|
E|-----------------------------------------------------|

  Esta parte x 5
E|-8------8-----10------------------------------------|
B|--11(13)--11-9--9--8-9-8---8-9-8---8-9-8----8-------|
G|------------------------10------10------10----------|
D|----------------------------------------------------|
A|----------------------------------------------------|
E|----------------------------------------------------|

E|-8-------8-------------------------------------------|
B|---11(13)--11-8--------------------------------------|
G|----------------10-8--8-10(12)8-10-8-10(12)10-8---8--|
D|--------------------10--------------------------10---|
A|-----------------------------------------------------|
E|-----------------------------------------------------|


E|----------------------------------------------------|
B|----------------------------------------------------|
G|----------------------------------------------------|
D|10(12)10(12)8---------8-10(12)10-8-10---8-10(12)----|
A|--------------10--8-10----------------10------------|
E|----------------------------------------------------|


E|--------------------------------------------------------|
B|------8-------------------------------------------------|
G|------8--------------------10(12)-10(12)-10(12)10-8--8--|
D|-8-10---10-8-10-10-10-10-8-------------------------10---|
A|--------------------------------------------------------|
E|--------------------------------------------------------|

E|--------------------------------------------------------|
B|--------------------------------------------------------|
G|------------------------10(12)-10(12)-10(12)10-8--8-----|
D|------------------------------------------------10------|
A|-11-10-11-10-11-10-11-10--------------------------------|
E|--------------------------------------------------------|

E|--------------------------------8-----------------------|
B|--------------------------11(13)--x11-------------------|
G|--------------------------------------------------------|
D|--------------------------------------------------------|
A|-11-10-11-10-11-10-11-10--------------------------------|
E|--------------------------------------------------------|

  Slide
E|-----13-11--11-13(14)11-13-13(14)-13(14)-13(14)13-11-13-11--11-11--|
B|11-13-----13----------------------------------------------13-----13|
G|-------------------------------------------------------------------|
D|-------------------------------------------------------------------|
A|-------------------------------------------------------------------|
E|-------------------------------------------------------------------|

E|--------------------------------------14-----14----------------11--|
B|13(15)13-11-13-11-13(15)13-11--13(15)-13(15)-13(15)11-13-11----11--|
G|-----------------------------12-----------------------------12-----|
D|-------------------------------------------------------------------|
E|-------------------------------------------------------------------|
B|-------------------------------------------------------------------|

E|--------------------------------------------------------|
B|8-9-11-9-8----------------------------------------------|
G|-----------10-8----10(12)8-10---------------------------|
D|----------------10--------------------------------------|
A|--------------------------------------------------------|
E|--------------------------------------------------------|


E|-----------------------------------------------------------------|
B|8-9-11-9-8--9-8--8-----------------------------------------------|
G|---------------10-10--8-10-8-7-8-7----------12-10-10(12)10-8-10--|
D|----------------------------------10-8-10-10---------------------|
A|-----------------------------------------------------------------|
E|-----------------------------------------------------------------|

E|-----------------------------------------------------------------|
B|-----------------------------------------------------------------|
G|----8--------10(12)-10(12)-10(12)10-8--8-------------------------|
D|-10--10-8-10-------------------------10--------------------------|
A|-----------------------------------------11-10-11-10-11-10-11-10-|
E|-----------------------------------------------------------------|

E|-----------------------------------------------------------------|
B|-----------------------------------------------------------------|
G|----8--------10(12)-10(12)-10(12)10-8--8-------------------------|
D|-10--10-8-10-------------------------10--------------------------|
A|-----------------------------------------11-10-11-10-11-10-11-10-|
E|-----------------------------------------------------------------|

E|--------------------------------------------------------|
B|--------------------------------------------------------|
G|--------------------------------------------------------|
D|11-10--11-10-x9 creo bien rápido------------------------|
A|--------------------------------------------------------|
E|--------------------------------------------------------|

Cm            G#
Tengo un corazón
       Bb              Cm
Que esta bailando al viento.
Tengo una ilusión
Te quiero amar despierto
No puedo parar este sentimiento
Voy a demostrar todo lo que siento.

Bb                    G#
 Quiero bailar sin parar
Bb                      G#
 Quiero bailar y transpirar
G
 Volar, volar, volar...

Solo 2 de guitarra

E|----------------------------------------------|
B|----------------------9-11(13)11--------------|
G|-10(12)10(12)8-10--10------------10(12)8------|
D|-----------------------------------------10---|
A|----------------------------------------------|
E|----------------------------------------------|

E|-8-------8-------------------------------------------------|
B|---11(13)--11-8--------------------------------------------|
G|----------------10-8--8-10(12)8-10--8-10(12)x8-10(12)8-----|
D|--------------------10---------------------------------10--|
A|-----------------------------------------------------------|
E|-----------------------------------------------------------|

E|--------------------------------------------------------|
B|------8------8------------------------------------------|
G|------8------8------8-10(12)8-x11-10(12)----------------|
D|-8-10---10-10-x9-10---------------------10--------------|
A|--------------------------------------------------------|
E|--------------------------------------------------------|

E|---------------------------------------------------------|
B|---------------------------------------------------------|
G|-10(12)-10(12)-10(12)10-8--8-----------------------------|
D|-------------------------10------------------------------|
A|-----------------------------11-10-11-10-11-10-11-10-----|
E|---------------------------------------------------------|

E|---------------------------------------------------------|
B|---------------------------------------------------------|
G|-10(12)-10(12)-10(12)10-8--8-----------------------------|
D|-------------------------10------------------------------|
A|-----------------------------11-10-11-10-11-10-11-10-----|
E|---------------------------------------------------------|

E|-8------8-----------------------------------------|
B|--11(13)--x12-10(12)------------------------------|
G|--------------------------------------------------|
D|--------------------------------------------------|
A|--------------------------------------------------|
E|--------------------------------------------------|


E|---------------------------------|
B|---------------------------------|
G|---------------------------------|
D|---------------------------------|
A|-3--3---------------------3-3----|
E|--6--6-4-4-3-4-3-1-1-1-4-6-6-6---|

Final

B|-11(13)---------------------|
Suggest correction
Give kudos to tab author, rate the tab!
1 2 3 4 5
comments
print report bad tab
guest
Wanna post a correction for this tab? Suggest correction