Oops, an error
Loading. Please wait.

Cuídate Del Mundo Tab

18 views 1 this week
no commentswrite comment
1 2 3 4 5
3 more votes to show rating
add to favorites
launch autoscroll
font size
0
reset
how to read this tab
guitar tuner
×
Best way to learn
"Cuídate Del Mundo"
Autoscroll
slow
fast
+/-
esc
set tempo
stop
Temazo de los gardeles, no hay nada mas que decir


Acá engancha ?Oxigeno?
e|-----------------------------------------------|--
B|-----------------------------------------------|--
G|-----------------------------------------------|--
D|-----------------------------------------------|--
A|-0-1-0-3-0-4-0-5-0-1-0-3-0-4-0-5-0-1-0-3-0-4-0-|--
E|-----------------------------------------------|--

   D                     A#             C
e|----------------------------------------------------------|--
B|----------------------------------------------------------|--
G|----------------------------------------------------------|--
D|-12-12--------12---------8------8-------10--------10------|--
A|-12----12--------12--------8------8--------10--------10---|--
E|-10-------10--------10-6-----6------6-8-------8---------8-|--

   D   C   D  G  F  C  D   D  C  D  G  F
e|-----------------------------------------|--
B|-----------------------------------------|--
G|-----------------------------------------|--
D|-----------12-10-----------------12-10---|--
A|-12--10-12-10-8--10-12--12-10-12-10-8----|--
E|-10--8--10-------8--10--10-8--10---------|--

VERSO
e|--------------------|--
B|--------------------|--
G|--------------------|--
D|-8--8-----10--10----|--  SIGUE HACIENDO ESTO HASTA EL SOLO
A|-8--8-----10--10----|--
E|-6--6-----8---8-----|--

e|-----------------------------------------|--
B|-----------------------------------------|--
G|-----------------------------------------|--
D|-----------12-10-----------------12-10---|--
A|-12--10-12-10-8--10-12--12-10-12-10-8----|--
E|-10--8--10-------8--10--10-8--10---------|--

?Cuida bien tus    alas de la      policía  ne-ne?
e|-------------------------------------------------|--
B|-------------------------------------------------|--
G|-------------------------------------------------|--
D|---8-------------10------------------12---15-12--|--
A|-8-8-------------10-10---------------12---15-12--|--
E|-6-6-------------8--8----------------10---13-10--|--

SOLO#1

e|----------------------------|--
B|-----10-13------------------|--
G|-12b-------12b-10----10-12--|--
D|------------------12--------|--
A|----------------------------|--
E|----------------------------|--

e|-------10--------------------------------------------------------
B|-----10--10---13-10-----10---------------------------------------
G|-12b---------------12-10--12-10--12-10-----10--------------------
D|-------------------------------12-----12-10--12-10--10-----------
A|--------------------------------------------------12--12-10h12---
E|--------------------------------------------------------------10-

e|--------------------------------------------------------------|--
B|----------------------------------13-------------13-15--------|--
G|-------------------------10--12h10--12-10--10-12--------------|--
D|----------------10--10h12--12------------12-------------------|--
A|-----8--8--10h12--12------------------------------------------|--
E|-8h10-10------------------------------------------------------|--

e|-------13----13-15b---15b-15-13---15-13-----------------------|--
B|-13h15----15-------------------15------15-15---13-15b-15b-15b-|--
G|--------------------------------------------------------------|--
D|--------------------------------------------------------------|--
A|--------------------------------------------------------------|--
E|--------------------------------------------------------------|--

e|-----------13----------13----------13-|----------13----13-15b-|--
B|-15--13h15----15h13h15----15h13h15----|-15h13h15----15--------|--
G|--------------------------------------|-----------------------|--
D|--------------------------------------|-----------------------|--
A|------------ESTO DOS VECES------------|-----------------------|--
E|--------------------------------------|-----------------------|--

e|-15b-15-13-----15-13-------|----10------|--------------|--
B|-----------15--------15-15-|-13b--13h10-|-13-10--------|--
G|---------------------------|------------|-------10-12--|--
D|---------------------------|------------|--------------|--
A|---------------------------|-----X3-----|--------------|--
E|---------------------------|------------|--------------|--

e|------------------------------------------------------------|--
B|------------------------------12--10--------------------10--|--
G|-------10----10-12-12b--12-10-12--10--------------------10--|--
D|-10-12----12--------------------------12h10-12----10h12-----|--
A|------------------------------------------------------------|--
E|------------------------------------------------------------|--

VERSO (OTRA VEZ)
e|--------------------|--
B|--------------------|--
G|--------------------|--
D|-8--8-----10--10----|--
A|-8--8-----10--10----|--
E|-6--6-----8---8-----|--

e|-----------------------------------------|--
B|-----------------------------------------|--
G|-----------------------------------------|--
D|-----------12-10-----------------12-10---|--
A|-12--10-12-10-8--10-12--12-10-12-10-8----|--
E|-10--8--10-------8--10--10-8--10---------|--

?Pero nunca toques    para estar   de moda  bo-ba
e|-------------------------------------------------|--
B|-------------------------------------------------|--
G|-------------------------------------------------|--
D|---8------------------10-------------12---15-12--|--
A|-8-8------------------10-10----------12---15-12--|--
E|-6-6------------------8--8-----------10---13-10--|--

e|----------------------3b-3----5-6-5-3-5-|--
B|-5b--5b-3-5-3--3----3---------5-6-5-3-5-|--
G|----------------------------------------|--
D|----------------------------------------|--
A|----------------------------------------|--
E|----------------------------------------|--

e|-------3h5h3-------3h5h3-------3h5h3-------3h5h3---|--------|-
B|-3h5h6-------3h5h6-------3h5h6-------3h5h6---------|--------|-
G|---------------------------------------------------|-7h9h10-|-
D|---------------------------------------------------|--------|-
A|---------------------------------------------------|--------|-
E|---------------------------------------------------|--------|-

e|------------------------------------------------------------|-
B|-10-8------8------------------------------------------------|-
G|------10-9---10-9-7-10-9-7----9-7------7--------------------|-
D|---------------------------10-----10-8---10-8-7-10-8-7------|-
A|-------------------------------------------------------8-10-|-
E|------------------------------------------------------------|-

e|------------------------------------------------------------|-
B|------------------------------------------------------------|-
G|------------------------------------------------------------|-
D|------------------------------------------------------10-12-|-
A|------8----8-10-10b--10-8-10--8---------------8-10-12-------|-
E|-8-10---10----------------------10-8-10--8-10---------------|-

e|------10------------10------------10------------10----------|-
B|------------------------------------------------------------|-
G|-12b-----12h10h12b-----12h10h12b-----12h10h12b-----12h10h12-|-
D|------------------------------------------------------------|-
A|------------------------------------------------------------|-
E|------------------------------------------------------------|-

e|---------------------------------------------|-
B|-----------------------------12-10-----------|-
G|-------10----10-12-12b-12h10-12-10-----------|-
D|-10h12----12------------------------12h10h12-|-
A|---------------------------------------------|-
E|---------------------------------------------|-

e|------------------------------------|----------------------------
B|------------------------------------|----------------------------
G|------------------------------------|----------------------------
D|--10--10----------------------------|----------------------------
A|----12--12-10-12-10-8-10-8-10-8h10--|-----8--8-10-10b--10-8------
E|------------------------------------|-8h10-10--------------10-10-

e|--------------------------------------|--
B|--------------------------------------|--
G|--------------------------------------|--
D|--------12-10-----------------12-10---|--
A|--10-12-10-8--10-12--12-10-12-10-8----|--
E|--8--10-------8--10--10-8--10---------|--

Listo

Es practica nomas. Bastante complicadito....

AGUANTE LOS GARDELES!!!!!!!!!!!!!
Suggest correction
Give kudos to tab author, rate the tab!
1 2 3 4 5
comments
print report bad tab
guest
You may want to rate the tab now too:
select rating
Wanna post a correction for this tab? Suggest correction