Oops, an error
Loading. Please wait.

Cuídate Del Mundo Bass Tab

14 views 1 this week
no commentswrite comment
1 2 3 4 5
3 more votes to show rating
add to favorites
launch autoscroll
font size
0
reset
guitar tuner
Autoscroll
slow
fast
+/-
esc
set tempo
stop
Help us to improve Ultimate-Guitar.com Take our survey!
×
EMPIEZA ASI

G|-------------|-----------------------------12-10----------------12-10-|
D|-12-12-------|-8-8-----10-10------12-10-12-12--8-10-12-12-10-12-12-10-|X
A|-12----12----|-8---8---10----10---12-10-12-10--8-10-12-12-10-12-10--8-|3
E|-10-------10-|-6-----6--8-------8-10--8-10--------8-10-10--8-10-------|

TODO EL TEMA

G|----------------------------------12-10----------------12-10-|
D|-8--------10-------------12-10-12-12--8-10-12-12-10-12-12-10-|
A|-8--------10-------------12-10-12-10--8-10-12-12-10-12-10--8-|
E|-6---------8-------------10--8-10--------8-10-10--8-10-------|

cuidate del mundo no se destruya...

cualquier duda escriban a matiasamanecido_rnr97@
Suggest correction
Give kudos to tab author, rate the tab!
1 2 3 4 5
comments
print report bad tab
guest
You may want to rate the tab now too:
select rating
Wanna post a correction for this tab? Suggest correction